  0
SECTION
  2
HEADER
  9
$ACADVER
  1
AC1012
  9
$DWGCODEPAGE
  3
dos850
  9
$INSBASE
 10
0.0
 20
0.0
 30
0.0
  9
$EXTMIN
 10
1.000000E+20
 20
1.000000E+20
 30
1.000000E+20
  9
$EXTMAX
 10
-1.000000E+20
 20
-1.000000E+20
 30
-1.000000E+20
  9
$LIMMIN
 10
0.0
 20
0.0
  9
$LIMMAX
 10
0.0
 20
0.0
  9
$ORTHOMODE
 70
     0
  9
$REGENMODE
 70
     1
  9
$FILLMODE
 70
     1
  9
$QTEXTMODE
 70
     0
  9
$MIRRTEXT
 70
     1
  9
$DRAGMODE
 70
     2
  9
$LTSCALE
 40
1.0
  9
$OSMODE
 70
     0
  9
$ATTMODE
 70
     1
  9
$TEXTSIZE
 40
0.2
  9
$TRACEWID
 40
0.05
  9
$TEXTSTYLE
  7
STANDARD
  9
$CLAYER
  8
0
  9
$CELTYPE
  6
CONTINUOUS
  9
$CECOLOR
 62
   256
  9
$CELTSCALE
 40
1.0
  9
$DELOBJ
 70
     1
  9
$DISPSILH
 70
     0
  9
$DIMSCALE
 40
1.0
  9
$DIMASZ
 40
0.18
  9
$DIMEXO
 40
0.0625
  9
$DIMDLI
 40
0.38
  9
$DIMRND
 40
0.0
  9
$DIMDLE
 40
0.0
  9
$DIMEXE
 40
0.18
  9
$DIMTP
 40
0.0
  9
$DIMTM
 40
0.0
  9
$DIMTXT
 40
0.18
  9
$DIMCEN
 40
0.09
  9
$DIMTSZ
 40
0.0
  9
$DIMTOL
 70
     0
  9
$DIMLIM
 70
     0
  9
$DIMTIH
 70
     1
  9
$DIMTOH
 70
     1
  9
$DIMSE1
 70
     0
  9
$DIMSE2
 70
     0
  9
$DIMTAD
 70
     0
  9
$DIMZIN
 70
     0
  9
$DIMBLK
  1

  9
$DIMASO
 70
     1
  9
$DIMSHO
 70
     1
  9
$DIMPOST
  1

  9
$DIMAPOST
  1

  9
$DIMALT
 70
     0
  9
$DIMALTD
 70
     2
  9
$DIMALTF
 40
25.4
  9
$DIMLFAC
 40
1.0
  9
$DIMTOFL
 70
     0
  9
$DIMTVP
 40
0.0
  9
$DIMTIX
 70
     0
  9
$DIMSOXD
 70
     0
  9
$DIMSAH
 70
     0
  9
$DIMBLK1
  1

  9
$DIMBLK2
  1

  9
$DIMSTYLE
  2
STANDARD
  9
$DIMCLRD
 70
     0
  9
$DIMCLRE
 70
     0
  9
$DIMCLRT
 70
     0
  9
$DIMTFAC
 40
1.0
  9
$DIMGAP
 40
0.09
  9
$DIMJUST
 70
     0
  9
$DIMSD1
 70
     0
  9
$DIMSD2
 70
     0
  9
$DIMTOLJ
 70
     1
  9
$DIMTZIN
 70
     0
  9
$DIMALTZ
 70
     0
  9
$DIMALTTZ
 70
     0
  9
$DIMFIT
 70
     3
  9
$DIMUPT
 70
     0
  9
$DIMUNIT
 70
     2
  9
$DIMDEC
 70
     4
  9
$DIMTDEC
 70
     4
  9
$DIMALTU
 70
     2
  9
$DIMALTTD
 70
     2
  9
$DIMTXSTY
  7
STANDARD
  9
$DIMAUNIT
 70
     0
  9
$LUNITS
 70
     2
  9
$LUPREC
 70
     4
  9
$SKETCHINC
 40
0.1
  9
$FILLETRAD
 40
0.0
  9
$AUNITS
 70
     0
  9
$AUPREC
 70
     0
  9
$MENU
  1
acad
  9
$ELEVATION
 40
0.0
  9
$PELEVATION
 40
0.0
  9
$THICKNESS
 40
0.0
  9
$LIMCHECK
 70
     0
  9
$BLIPMODE
 70
     1
  9
$CHAMFERA
 40
0.0
  9
$CHAMFERB
 40
0.0
  9
$CHAMFERC
 40
0.0
  9
$CHAMFERD
 40
0.0
  9
$SKPOLY
 70
     0
  9
$TDCREATE
 40
0.000000000
  9
$TDUPDATE
 40
0.000000000
  9
$TDINDWG
 40
0.0000000000
  9
$TDUSRTIMER
 40
0.0000000000
  9
$USRTIMER
 70
     1
  9
$ANGBASE
 50
0.0
  9
$ANGDIR
 70
     0
  9
$PDMODE
 70
     0
  9
$PDSIZE
 40
0.0
  9
$PLINEWID
 40
0.0
  9
$COORDS
 70
     0
  9
$SPLFRAME
 70
     0
  9
$SPLINETYPE
 70
     6
  9
$SPLINESEGS
 70
     8
  9
$ATTDIA
 70
     0
  9
$ATTREQ
 70
     1
  9
$HANDLING
 70
     1
  9
$HANDSEED
  5
DF
  9
$SURFTAB1
 70
     6
  9
$SURFTAB2
 70
     6
  9
$SURFTYPE
 70
     6
  9
$SURFU
 70
     6
  9
$SURFV
 70
     6
  9
$UCSNAME
  2

  9
$UCSORG
 10
0.0
 20
0.0
 30
0.0
  9
$UCSXDIR
 10
1.0
 20
0.0
 30
0.0
  9
$UCSYDIR
 10
0.0
 20
1.0
 30
0.0
  9
$PUCSNAME
  2

  9
$PUCSORG
 10
0.0
 20
0.0
 30
0.0
  9
$PUCSXDIR
 10
1.0
 20
0.0
 30
0.0
  9
$PUCSYDIR
 10
0.0
 20
1.0
 30
0.0
  9
$USERI1
 70
     0
  9
$USERI2
 70
     0
  9
$USERI3
 70
     0
  9
$USERI4
 70
     0
  9
$USERI5
 70
     0
  9
$USERR1
 40
0.0
  9
$USERR2
 40
0.0
  9
$USERR3
 40
0.0
  9
$USERR4
 40
0.0
  9
$USERR5
 40
0.0
  9
$WORLDVIEW
 70
     1
  9
$SHADEDGE
 70
     3
  9
$SHADEDIF
 70
    70
  9
$TILEMODE
 70
     1
  9
$MAXACTVP
 70
    16
  9
$PINSBASE
 10
0.0
 20
0.0
 30
0.0
  9
$PLIMCHECK
 70
     0
  9
$PEXTMIN
 10
1.000000E+20
 20
1.000000E+20
 30
1.000000E+20
  9
$PEXTMAX
 10
-1.000000E+20
 20
-1.000000E+20
 30
-1.000000E+20
  9
$PLIMMIN
 10
0.0
 20
0.0
  9
$PLIMMAX
 10
12.0
 20
9.0
  9
$UNITMODE
 70
     0
  9
$VISRETAIN
 70
     0
  9
$PLINEGEN
 70
     1
  9
$PSLTSCALE
 70
     0
  9
$TREEDEPTH
 70
  3020
  9
$PICKSTYLE
 70
     1
  9
$CMLSTYLE
  2
STANDARD
  9
$CMLJUST
 70
     0
  9
$CMLSCALE
 40
1.0
  9
$SAVEIMAGES
 70
     0
  0
ENDSEC
  0
SECTION
  2
CLASSES
  0
CLASS
  1
LWPOLYLINE
  2
AcDbPolyline
  3
"AutoCAD"
 90
        0
280
     0
281
     1
  0
CLASS
  1
IMAGE
  2
AcDbRasterImage
  3
ISM
 90
      127
280
     0
281
     1
  0
CLASS
  1
OLE2FRAME
  2
AcDbOle2Frame
  3
""
 90
        0
280
     0
281
     1
  0
CLASS
  1
HATCH
  2
AcDbHatch
  3
"ACAD_SEDONA"
 90
        0
280
     0
281
     1
  0
CLASS
  1
DICTIONARYVAR
  2
AcDbDictionaryVar
  3
"AutoCAD"
 90
        0
280
     0
281
     0
  0
CLASS
  1
RASTERVARIABLES
  2
AcDbRasterVariables
  3
ISM
 90
        0
280
     0
281
     0
  0
CLASS
  1
IMAGEDEF
  2
AcDbRasterImageDef
  3
ISM
 90
        0
280
     0
281
     0
  0
CLASS
  1
IMAGEDEF_REACTOR
  2
AcDbRasterImageDefReactor
  3
ISM
 90
        1
280
     0
281
     0
  0
CLASS
  1
IDBUFFER
  2
AcDbIdBuffer
  3
"Acad"
 90
        0
280
     0
281
     0
  0
CLASS
  1
SPATIAL_FILTER
  2
AcDbSpatialFilter
  3
"Acad"
 90
        0
280
     0
281
     0
  0
CLASS
  1
XRECORD
  2
AcDbXrecord
  3
"<Built In>"
 90
        0
280
     0
281
     0
  0
CLASS
  1
SORTENTSTABLE
  2
AcDbSortentsTable
  3
"AutoCAD"
 90
        0
280
     0
281
     0
  0
CLASS
  1
LAYER_INDEX
  2
AcDbLayerIndex
  3
"Acad"
 90
        0
280
     0
281
     0
  0
CLASS
  1
SPATIAL_INDEX
  2
AcDbSpatialIndex
  3
"Acad"
 90
        0
280
     0
281
     0
  0
CLASS
  1
OBJECT_PTR
  2
CAseDLPNTableRecord
  3
"ASE-LPNTableRecord"
 90
        1
280
     0
281
     0
  0
CLASS
  1
LAYOUT
  2
AcDbLayout
  3
"AutoCAD 2000"
 90
        1
280
     0
281
     0
  0
CLASS
  1
PLOTSETTINGS
  2
AcDbPlotSettings
  3
"AutoCAD 2000"
 90
        1
280
     0
281
     0
  0
CLASS
  1
ACDBDICTIONARYWDFLT
  2
AcDbDictionaryWithDefault
  3
"AutoCAD 2000"
 90
        1
280
     0
281
     0
  0
CLASS
  1
ACDBPLACEHOLDER
  2
AcDbPlaceHolder
  3
"AutoCAD 2000"
 90
        1
280
     0
281
     0
  0
CLASS
  1
VBA_PROJECT
  2
AcDbVbaProject
  3
"acadvba"
 90
        1
280
     0
281
     0
  0
CLASS
  1
WIPEOUT
  2
AcDbWipeout
  3
WipeOut|AutoCAD Express Tool|expresstools@autodesk.com
 90
      127
280
     0
281
     1
  0
CLASS
  1
WIPEOUTVARIABLES
  2
AcDbWipeoutVariables
  3
WipeOut|AutoCAD Express Tool|expresstools@autodesk.com
 90
        0
280
     0
281
     0
  0
CLASS
  1
RTEXT
  2
RText
  3
RText|AutoCAD Express Tool|expresstools@autodesk.com
 90
        0
280
     0
281
     1
  0
CLASS
  1
ARCALIGNEDTEXT
  2
AcDbArcAlignedText
  3
ATEXT|AutoCAD Express Tool|expresstools@autodesk.com
 90
        0
280
     0
281
     1
  0
ENDSEC
  0
SECTION
  2
TABLES
  0
TABLE
  2
VPORT
  5
7
100
AcDbSymbolTable
 70
     1
  0
VPORT
  5
15
100
AcDbSymbolTableRecord
100
AcDbViewportTableRecord
  2
*ACTIVE
 70
     0
 10
0.0
 20
0.0
 11
1.0
 21
1.0
 12
6.591288
 22
4.579184
 13
0.0
 23
0.0
 14
1.0
 24
1.0
 15
0.0
 25
0.0
 16
0.0
 26
0.0
 36
1.0
 17
0.0
 27
0.0
 37
0.0
 40
9.158369
 41
0.688564
 42
50.0
 43
0.0
 44
0.0
 50
0.0
 51
0.0
 71
     0
 72
   100
 73
     1
 74
     1
 75
     0
 76
     0
 77
     0
 78
     0
  0
ENDTAB
  0
TABLE
  2
LTYPE
  5
4
100
AcDbSymbolTable
 70
     3
  0
LTYPE
  5
11
100
AcDbSymbolTableRecord
100
AcDbLinetypeTableRecord
  2
BYBLOCK
 70
    64
  3

 72
    65
 73
     0
 40
0.0
  0
LTYPE
  5
12
100
AcDbSymbolTableRecord
100
AcDbLinetypeTableRecord
  2
BYLAYER
 70
    64
  3

 72
    65
 73
     0
 40
0.0
  0
LTYPE
  5
13
100
AcDbSymbolTableRecord
100
AcDbLinetypeTableRecord
  2
CONTINUOUS
 70
    64
  3
Solid line
 72
    65
 73
     0
 40
0.0
  0
ENDTAB
  0
TABLE
  2
LAYER
  5
2
100
AcDbSymbolTable
 70
     1
  0
LAYER
  5
14
100
AcDbSymbolTableRecord
100
AcDbLayerTableRecord
  2
0
 70
     0
 62
     7
  6
CONTINUOUS
  0
ENDTAB
  0
TABLE
  2
STYLE
  5
3
100
AcDbSymbolTable
 70
     1
  0
STYLE
  5
17
100
AcDbSymbolTableRecord
100
AcDbTextStyleTableRecord
  2
STANDARD
 70
     0
 40
0.0
 41
1.0
 50
0.0
 71
     0
 42
0.0
  3
txt
  4

  0
ENDTAB
  0
TABLE
  2
VIEW
  5
5
100
AcDbSymbolTable
 70
     0
  0
ENDTAB
  0
TABLE
  2
UCS
  5
6
100
AcDbSymbolTable
 70
     0
  0
ENDTAB
  0
TABLE
  2
APPID
  5
8
100
AcDbSymbolTable
 70
     1
  0
APPID
  5
16
100
AcDbSymbolTableRecord
100
AcDbRegAppTableRecord
  2
ACAD
 70
     0
  0
ENDTAB
  0
TABLE
  2
DIMSTYLE
  5
9
100
AcDbSymbolTable
 70
     1
  0
DIMSTYLE
105
18
100
AcDbSymbolTableRecord
100
AcDbDimStyleTableRecord
  2
STANDARD
 70
     0
  3

  4

  5

  6

  7

 40
1.0
 41
0.18
 42
0.0625
 43
0.38
 44
0.18
 45
0.0
 46
0.0
 47
0.0
 48
0.0
 71
     0
 72
     0
 73
     1
 74
     1
 75
     0
 76
     0
 77
     0
 78
     0
140
0.18
141
0.09
142
0.0
143
25.4
144
1.0
145
0.0
146
1.0
147
0.09
170
     0
171
     2
172
     0
173
     0
174
     0
175
     0
176
     0
177
     0
178
     0
270
     2
271
     4
272
     4
273
     2
274
     2
275
     0
280
     0
281
     0
282
     0
283
     1
284
     0
285
     0
286
     0
287
     0
288
     0
340
17
  0
ENDTAB
  0
TABLE
  2
BLOCK_RECORD
  5
1
100
AcDbSymbolTable
 70
     0
  0
BLOCK_RECORD
  5
A
100
AcDbSymbolTableRecord
100
AcDbBlockTableRecord
  2
*MODEL_SPACE
  0
BLOCK_RECORD
  5
B
100
AcDbSymbolTableRecord
100
AcDbBlockTableRecord
  2
*PAPER_SPACE
  0
ENDTAB
  0
ENDSEC
  0
SECTION
  2
BLOCKS
  0
BLOCK
  5
D
100
AcDbEntity
  8
0
100
AcDbBlockBegin
  2
*MODEL_SPACE
 70
     0
 10
0.0
 20
0.0
 30
0.0
  3
*MODEL_SPACE
  1

  0
ENDBLK
  5
E
100
AcDbEntity
  8
0
100
AcDbBlockEnd
  0
BLOCK
  5
F
100
AcDbEntity
 67
     1
  8
0
100
AcDbBlockBegin
  2
*PAPER_SPACE
 70
     0
 10
0.0
 20
0.0
 30
0.0
  3
*PAPER_SPACE
  1

  0
ENDBLK
  5
10
100
AcDbEntity
 67
     1
  8
0
100
AcDbBlockEnd
  0
ENDSEC
  0
SECTION
  2
ENTITIES
  0
SPLINE
  5
24
100
AcDbEntity
  8
0
 62
     0
100
AcDbSpline
210
0.0
220
0.0
230
1.0
 70
     0
 71
     3
 72
     0
 73
     0
 74
    32
 44
0.0000000001
 11
-1.3204094488188975
 21
1.60551968503937
 31
0.0
 11
-1.3341850393700787
 21
1.575492125984252
 31
0.0
 11
-1.3558740157480316
 21
1.5229645669291338
 31
0.0
 11
-1.3846968503937007
 21
1.4501456692913386
 31
0.0
 11
-1.4198818897637795
 21
1.3592598425196851
 31
0.0
 11
-1.4606456692913385
 21
1.252507874015748
 31
0.0
 11
-1.506228346456693
 21
1.1321220472440945
 31
0.0
 11
-1.5558503937007875
 21
1.0003070866141732
 31
0.0
 11
-1.6087401574803151
 21
0.8592874015748031
 31
0.0
 11
-1.6641141732283464
 21
0.711259842519685
 31
0.0
 11
-1.7212086614173228
 21
0.5584606299212599
 31
0.0
 11
-1.779248031496063
 21
0.4030944881889764
 31
0.0
 11
-1.8374606299212599
 21
0.2473818897637795
 31
0.0
 11
-1.8950629921259843
 21
0.0935354330708661
 31
0.0
 11
-1.9512952755905513
 21
-0.0562283464566929
 31
0.0
 11
-2.0053779527559055
 21
-0.1996889763779527
 31
0.0
 11
-2.0565354330708661
 21
-0.3346456692913386
 31
0.0
 11
-2.0774527559055116
 21
-0.3346456692913386
 31
0.0
 11
-2.0983700787401576
 21
-0.3346456692913386
 31
0.0
 11
-2.1192874015748031
 21
-0.3346456692913386
 31
0.0
 11
-2.1402047244094486
 21
-0.3346456692913386
 31
0.0
 11
-2.1611220472440946
 21
-0.3346456692913386
 31
0.0
 11
-2.1820393700787402
 21
-0.3346456692913386
 31
0.0
 11
-2.2029566929133857
 21
-0.3346456692913386
 31
0.0
 11
-2.2238740157480317
 21
-0.3346456692913386
 31
0.0
 11
-2.2447913385826772
 21
-0.3346456692913386
 31
0.0
 11
-2.2657086614173227
 21
-0.3346456692913386
 31
0.0
 11
-2.2866259842519687
 21
-0.3346456692913386
 31
0.0
 11
-2.3075433070866143
 21
-0.3346456692913386
 31
0.0
 11
-2.3284606299212598
 21
-0.3346456692913386
 31
0.0
 11
-2.3493779527559053
 21
-0.3346456692913386
 31
0.0
 11
-2.3702952755905513
 21
-0.3346456692913386
 31
0.0
  0
LINE
  5
25
100
AcDbEntity
  8
0
 62
     0
100
AcDbLine
 10
-2.370295
 20
-0.334646
 30
0.0
 11
-2.391213
 21
-0.334646
 31
0.0
  0
LINE
  5
26
100
AcDbEntity
  8
0
 62
     0
100
AcDbLine
 10
-2.391213
 20
-0.334646
 30
0.0
 11
-3.346457
 21
2.149992
 31
0.0
  0
LINE
  5
27
100
AcDbEntity
  8
0
 62
     0
100
AcDbLine
 10
-3.346457
 20
2.149992
 30
0.0
 11
-3.001004
 21
2.149992
 31
0.0
  0
LINE
  5
28
100
AcDbEntity
  8
0
 62
     0
100
AcDbLine
 10
-3.001004
 20
2.149992
 30
0.0
 11
-2.352177
 21
0.339878
 31
0.0
  0
SPLINE
  5
29
100
AcDbEntity
  8
0
 62
     0
100
AcDbSpline
210
0.0
220
0.0
230
1.0
 70
     0
 71
     3
 72
     0
 73
     0
 74
   224
 44
0.0000000001
 11
-2.3521771653543309
 21
0.3398779527559055
 31
0.0
 11
-2.3426181102362205
 21
0.3130511811023622
 31
0.0
 11
-2.3332559055118112
 21
0.2864409448818898
 31
0.0
 11
-2.3240905511811025
 21
0.2600314960629921
 31
0.0
 11
-2.3151220472440945
 21
0.2338425196850394
 31
0.0
 11
-2.3063425196850393
 21
0.2078543307086614
 31
0.0
 11
-2.2977677165354331
 21
0.1820826771653543
 31
0.0
 11
-2.2893858267716536
 21
0.1565236220472441
 31
0.0
 11
-2.281208661417323
 21
0.1311811023622047
 31
0.0
 11
-2.2732204724409448
 21
0.1060472440944882
 31
0.0
 11
-2.26544094488189
 21
0.0811377952755905
 31
0.0
 11
-2.2578582677165353
 21
0.0564409448818898
 31
0.0
 11
-2.250484251968504
 21
0.0319724409448819
 31
0.0
 11
-2.2433070866141733
 21
0.0077204724409449
 31
0.0
 11
-2.2363346456692912
 21
-0.0163031496062992
 31
0.0
 11
-2.2295669291338585
 21
-0.0401062992125984
 31
0.0
 11
-2.2230118110236221
 21
-0.0636889763779528
 31
0.0
 11
-2.2157244094488191
 21
-0.0385
 31
0.0
 11
-2.2083031496062993
 21
-0.0133188976377953
 31
0.0
 11
-2.2007401574803152
 21
0.0118622047244094
 31
0.0
 11
-2.1930393700787403
 21
0.0370511811023622
 31
0.0
 11
-2.1851968503937007
 21
0.062240157480315
 31
0.0
 11
-2.1772165354330708
 21
0.0874330708661417
 31
0.0
 11
-2.1690984251968506
 21
0.1126338582677165
 31
0.0
 11
-2.1608425196850392
 21
0.1378425196850394
 31
0.0
 11
-2.1524448818897639
 21
0.1630551181102362
 31
0.0
 11
-2.1439094488188974
 21
0.1882755905511811
 31
0.0
 11
-2.1352362204724411
 21
0.213507874015748
 31
0.0
 11
-2.1264291338582679
 21
0.238755905511811
 31
0.0
 11
-2.1174803149606301
 21
0.264011811023622
 31
0.0
 11
-2.1083976377952758
 21
0.2892834645669292
 31
0.0
 11
-2.0991811023622047
 21
0.3145708661417323
 31
0.0
 11
-2.0898307086614172
 21
0.3398779527559055
 31
0.0
 11
-2.0513070866141732
 21
0.443
 31
0.0
 11
-2.0144133858267717
 21
0.5411692913385827
 31
0.0
 11
-1.9789055118110237
 21
0.6350905511811024
 31
0.0
 11
-1.9445629921259842
 21
0.7254685039370079
 31
0.0
 11
-1.9111417322834645
 21
0.8130118110236221
 31
0.0
 11
-1.8784212598425196
 21
0.8984370078740157
 31
0.0
 11
-1.8461653543307086
 21
0.9824448818897638
 31
0.0
 11
-1.8141496062992126
 21
1.065748031496063
 31
0.0
 11
-1.7821259842519686
 21
1.1490433070866142
 31
0.0
 11
-1.7498818897637796
 21
1.2330551181102363
 31
0.0
 11
-1.7171732283464567
 21
1.3184842519685038
 31
0.0
 11
-1.683779527559055
 21
1.4060393700787401
 31
0.0
 11
-1.6494566929133858
 21
1.4964291338582678
 31
0.0
 11
-1.6139881889763779
 21
1.5903622047244095
 31
0.0
 11
-1.5771299212598424
 21
1.6885472440944882
 31
0.0
 11
-1.5386614173228346
 21
1.7916968503937007
 31
0.0
 11
-1.5253149606299212
 21
1.818755905511811
 31
0.0
 11
-1.5081732283464566
 21
1.8472322834645669
 31
0.0
 11
-1.4874015748031495
 21
1.8766771653543306
 31
0.0
 11
-1.4631811023622048
 21
1.9066692913385828
 31
0.0
 11
-1.4356732283464566
 21
1.9367519685039369
 31
0.0
 11
-1.4050590551181101
 21
1.966507874015748
 31
0.0
 11
-1.3715039370078741
 21
1.995492125984252
 31
0.0
 11
-1.3351889763779528
 21
2.0232795275590552
 31
0.0
 11
-1.296271653543307
 21
2.0494173228346457
 31
0.0
 11
-1.2549370078740159
 21
2.0734881889763779
 31
0.0
 11
-1.2113543307086614
 21
2.0950472440944883
 31
0.0
 11
-1.1656968503937009
 21
2.1136692913385828
 31
0.0
 11
-1.1181259842519684
 21
2.1289015748031495
 31
0.0
 11
-1.0688307086614173
 21
2.1403267716535432
 31
0.0
 11
-1.017976377952756
 21
2.1475
 31
0.0
 11
-0.9657362204724409
 21
2.149992125984252
 31
0.0
 11
-0.9259409448818897
 21
2.149996062992126
 31
0.0
 11
-0.887996062992126
 21
2.1499803149606298
 31
0.0
 11
-0.8516299212598425
 21
2.1499330708661417
 31
0.0
 11
-0.8165866141732283
 21
2.1498740157480314
 31
0.0
 11
-0.7825905511811023
 21
2.149791338582677
 31
0.0
 11
-0.7493937007874015
 21
2.1497007874015748
 31
0.0
 11
-0.7167204724409448
 21
2.1495984251968503
 31
0.0
 11
-0.6843149606299213
 21
2.1495039370078741
 31
0.0
 11
-0.6518976377952755
 21
2.1493976377952757
 31
0.0
 11
-0.6192283464566929
 21
2.1492952755905512
 31
0.0
 11
-0.5860236220472441
 21
2.1492007874015746
 31
0.0
 11
-0.5520354330708661
 21
2.1491259842519685
 31
0.0
 11
-0.516988188976378
 21
2.1490590551181104
 31
0.0
 11
-0.4806259842519685
 21
2.1490196850393701
 31
0.0
 11
-0.4426811023622047
 21
2.149
 31
0.0
 11
-0.4028976377952756
 21
2.1490157480314962
 31
0.0
 11
-0.3674763779527559
 21
2.1488818897637794
 31
0.0
 11
-0.3331299212598425
 21
2.148464566929134
 31
0.0
 11
-0.2998346456692914
 21
2.1477559055118109
 31
0.0
 11
-0.2676141732283465
 21
2.1467677165354329
 31
0.0
 11
-0.2364448818897638
 21
2.145484251968504
 31
0.0
 11
-0.2063464566929134
 21
2.1439251968503936
 31
0.0
 11
-0.1773031496062992
 21
2.1420866141732282
 31
0.0
 11
-0.1493346456692913
 21
2.1399763779527561
 31
0.0
 11
-0.1224173228346457
 21
2.1375826771653545
 31
0.0
 11
-0.0965629921259843
 21
2.1349212598425198
 31
0.0
 11
-0.0717716535433071
 21
2.1319881889763779
 31
0.0
 11
-0.0480433070866142
 21
2.1287992125984254
 31
0.0
 11
-0.0253700787401575
 21
2.1253385826771654
 31
0.0
 11
-0.0037677165354331
 21
2.1216259842519687
 31
0.0
 11
0.0167716535433071
 21
2.1176496062992127
 31
0.0
 11
0.036259842519685
 21
2.1134251968503937
 31
0.0
 11
0.0624763779527559
 21
2.1070275590551182
 31
0.0
 11
0.0882204724409449
 21
2.1000196850393702
 31
0.0
 11
0.1134803149606299
 21
2.0923897637795275
 31
0.0
 11
0.1382637795275591
 21
2.0841456692913387
 31
0.0
 11
0.1625551181102362
 21
2.0752755905511813
 31
0.0
 11
0.1863740157480315
 21
2.0657992125984252
 31
0.0
 11
0.2097047244094488
 21
2.0557007874015749
 31
0.0
 11
0.2325590551181102
 21
2.044996062992126
 31
0.0
 11
0.2549212598425197
 21
2.0336653543307088
 31
0.0
 11
0.2768031496062992
 21
2.0217244094488187
 31
0.0
 11
0.2981968503937008
 21
2.0091692913385826
 31
0.0
 11
0.3191141732283465
 21
1.996
 31
0.0
 11
0.3395393700787401
 21
1.982216535433071
 31
0.0
 11
0.3594842519685039
 21
1.9678188976377953
 31
0.0
 11
0.3789448818897638
 21
1.9528070866141731
 31
0.0
 11
0.3979212598425197
 21
1.9371850393700787
 31
0.0
 11
0.4218622047244094
 21
1.9161653543307087
 31
0.0
 11
0.4450590551181102
 21
1.8944488188976378
 31
0.0
 11
0.467488188976378
 21
1.8720275590551181
 31
0.0
 11
0.4891732283464567
 21
1.8489015748031496
 31
0.0
 11
0.5100866141732283
 21
1.8250669291338584
 31
0.0
 11
0.530244094488189
 21
1.8005275590551182
 31
0.0
 11
0.5496338582677165
 21
1.775275590551181
 31
0.0
 11
0.5682677165354331
 21
1.7493188976377954
 31
0.0
 11
0.5861220472440945
 21
1.7226377952755905
 31
0.0
 11
0.6032165354330709
 21
1.6952519685039371
 31
0.0
 11
0.6195354330708661
 21
1.6671456692913387
 31
0.0
 11
0.6350905511811024
 21
1.6383267716535432
 31
0.0
 11
0.6498661417322835
 21
1.6087795275590551
 31
0.0
 11
0.6638700787401575
 21
1.5785196850393701
 31
0.0
 11
0.6770944881889763
 21
1.5475314960629922
 31
0.0
 11
0.6895433070866142
 21
1.5158228346456692
 31
0.0
 11
0.7013149606299213
 21
1.4834606299212598
 31
0.0
 11
0.7123307086614173
 21
1.4505354330708662
 31
0.0
 11
0.7225748031496063
 21
1.4170393700787403
 31
0.0
 11
0.7320629921259843
 21
1.382988188976378
 31
0.0
 11
0.7407795275590551
 21
1.3483582677165353
 31
0.0
 11
0.748740157480315
 21
1.3131614173228348
 31
0.0
 11
0.7559370078740157
 21
1.2773897637795275
 31
0.0
 11
0.7623779527559055
 21
1.2410590551181102
 31
0.0
 11
0.7680472440944882
 21
1.2041417322834647
 31
0.0
 11
0.7729645669291339
 21
1.1666614173228347
 31
0.0
 11
0.7771220472440945
 21
1.1286062992125985
 31
0.0
 11
0.7805236220472441
 21
1.08998031496063
 31
0.0
 11
0.7831614173228346
 21
1.0507716535433071
 31
0.0
 11
0.7850511811023622
 21
1.010992125984252
 31
0.0
 11
0.7861850393700788
 21
0.9706338582677165
 31
0.0
 11
0.7865629921259842
 21
0.9297047244094489
 31
0.0
 11
0.7863031496062992
 21
0.8948622047244095
 31
0.0
 11
0.7855354330708662
 21
0.8605157480314961
 31
0.0
 11
0.784251968503937
 21
0.8266653543307087
 31
0.0
 11
0.7824606299212599
 21
0.7933228346456693
 31
0.0
 11
0.7801456692913386
 21
0.7604724409448819
 31
0.0
 11
0.7773228346456693
 21
0.7281220472440945
 31
0.0
 11
0.7739803149606299
 21
0.6962677165354331
 31
0.0
 11
0.7701259842519685
 21
0.6649133858267716
 31
0.0
 11
0.765744094488189
 21
0.6340511811023623
 31
0.0
 11
0.7608543307086614
 21
0.6036929133858268
 31
0.0
 11
0.7554330708661418
 21
0.5738267716535433
 31
0.0
 11
0.749503937007874
 21
0.5444645669291338
 31
0.0
 11
0.7430433070866142
 21
0.5155984251968504
 31
0.0
 11
0.7360669291338583
 21
0.4872283464566929
 31
0.0
 11
0.7285629921259843
 21
0.4593543307086614
 31
0.0
 11
0.7205433070866142
 21
0.431988188976378
 31
0.0
 11
0.7122165354330708
 21
0.4051496062992126
 31
0.0
 11
0.7036102362204725
 21
0.3788937007874016
 31
0.0
 11
0.6947165354330709
 21
0.3532165354330709
 31
0.0
 11
0.6855393700787401
 21
0.3281259842519685
 31
0.0
 11
0.6760669291338582
 21
0.3036102362204725
 31
0.0
 11
0.6663110236220472
 21
0.2796811023622047
 31
0.0
 11
0.656255905511811
 21
0.2563346456692913
 31
0.0
 11
0.6459133858267716
 21
0.2335748031496063
 31
0.0
 11
0.6352677165354331
 21
0.2113937007874016
 31
0.0
 11
0.6243267716535433
 21
0.1898031496062992
 31
0.0
 11
0.6130866141732283
 21
0.1687952755905512
 31
0.0
 11
0.6015472440944882
 21
0.1483858267716536
 31
0.0
 11
0.5897007874015748
 21
0.1285551181102362
 31
0.0
 11
0.5775551181102362
 21
0.1093228346456693
 31
0.0
 11
0.5650984251968504
 21
0.0906732283464567
 31
0.0
 11
0.5523425196850393
 21
0.0726259842519685
 31
0.0
 11
0.5394527559055118
 21
0.0550984251968504
 31
0.0
 11
0.5264212598425196
 21
0.0380433070866142
 31
0.0
 11
0.513236220472441
 21
0.0214606299212598
 31
0.0
 11
0.4999094488188977
 21
0.0053622047244094
 31
0.0
 11
0.4864251968503937
 21
-0.0102677165354331
 31
0.0
 11
0.4727913385826772
 21
-0.0254212598425197
 31
0.0
 11
0.459
 21
-0.0401023622047244
 31
0.0
 11
0.4450629921259843
 21
-0.0543110236220472
 31
0.0
 11
0.4309606299212598
 21
-0.0680354330708661
 31
0.0
 11
0.4167086614173228
 21
-0.0812834645669291
 31
0.0
 11
0.4022992125984252
 21
-0.0940511811023622
 31
0.0
 11
0.3877362204724409
 21
-0.1063425196850394
 31
0.0
 11
0.373007874015748
 21
-0.1181456692913386
 31
0.0
 11
0.3581259842519685
 21
-0.1294763779527559
 31
0.0
 11
0.3430866141732283
 21
-0.1403188976377953
 31
0.0
 11
0.3278858267716536
 21
-0.1506850393700787
 31
0.0
 11
0.3125
 21
-0.160748031496063
 31
0.0
 11
0.2967204724409449
 21
-0.1705157480314961
 31
0.0
 11
0.2805393700787401
 21
-0.1799645669291339
 31
0.0
 11
0.2639566929133858
 21
-0.1891181102362205
 31
0.0
 11
0.2469724409448819
 21
-0.1979527559055118
 31
0.0
 11
0.2295866141732283
 21
-0.2064803149606299
 31
0.0
 11
0.2118070866141732
 21
-0.2146968503937008
 31
0.0
 11
0.1936299212598425
 21
-0.2226102362204724
 31
0.0
 11
0.1750511811023622
 21
-0.2302047244094488
 31
0.0
 11
0.1560787401574803
 21
-0.237492125984252
 31
0.0
 11
0.1367086614173228
 21
-0.2444645669291339
 31
0.0
 11
0.1169488188976378
 21
-0.2511377952755906
 31
0.0
 11
0.0967874015748031
 21
-0.2574881889763779
 31
0.0
 11
0.0762362204724409
 21
-0.2635354330708661
 31
0.0
 11
0.0552913385826772
 21
-0.269263779527559
 31
0.0
 11
0.0339645669291339
 21
-0.2746850393700788
 31
0.0
 11
0.0121338582677165
 21
-0.28
 31
0.0
 11
-0.0100787401574803
 21
-0.2853503937007874
 31
0.0
 11
-0.0326811023622047
 21
-0.2906811023622047
 31
0.0
 11
-0.0556850393700787
 21
-0.2959409448818898
 31
0.0
 11
-0.0790748031496063
 21
-0.3010748031496063
 31
0.0
 11
-0.1028582677165354
 21
-0.3060393700787402
 31
0.0
 11
-0.1270275590551181
 21
-0.3107755905511811
 31
0.0
 11
-0.1515944881889764
 21
-0.3152322834645669
 31
0.0
 11
-0.1765433070866142
 21
-0.3193543307086614
 31
0.0
 11
-0.2018858267716535
 21
-0.3230984251968504
 31
0.0
 11
-0.2276181102362205
 21
-0.3264094488188977
 31
0.0
 11
-0.253748031496063
 21
-0.3292362204724409
 31
0.0
 11
-0.280255905511811
 21
-0.3315196850393701
 31
0.0
 11
-0.3071614173228346
 21
-0.3332204724409449
 31
0.0
 11
-0.3344527559055118
 21
-0.3342755905511811
 31
0.0
  0
LINE
  5
2A
100
AcDbEntity
  8
0
 62
     0
100
AcDbLine
 10
-0.334453
 20
-0.334276
 30
0.0
 11
-0.362142
 21
-0.334646
 31
0.0
  0
LINE
  5
2B
100
AcDbEntity
  8
0
 62
     0
100
AcDbLine
 10
-0.362142
 20
-0.334646
 30
0.0
 11
-1.251941
 21
-0.334646
 31
0.0
  0
SPLINE
  5
2C
100
AcDbEntity
  8
0
 62
     0
100
AcDbSpline
210
0.0
220
0.0
230
1.0
 70
     0
 71
     3
 72
     0
 73
     0
 74
    32
 44
0.0000000001
 11
-1.2519409448818897
 21
-0.3346456692913386
 31
0.0
 11
-1.2515196850393702
 21
-0.2201889763779528
 31
0.0
 11
-1.2512677165354331
 21
-0.1033543307086614
 31
0.0
 11
-1.2511574803149605
 21
0.0155236220472441
 31
0.0
 11
-1.2511692913385826
 21
0.1361023622047244
 31
0.0
 11
-1.251271653543307
 21
0.2580393700787402
 31
0.0
 11
-1.2514566929133859
 21
0.381003937007874
 31
0.0
 11
-1.2516850393700787
 21
0.5046456692913386
 31
0.0
 11
-1.2519409448818897
 21
0.6286299212598425
 31
0.0
 11
-1.2521850393700786
 21
0.7526102362204724
 31
0.0
 11
-1.2524173228346456
 21
0.8762519685039371
 31
0.0
 11
-1.2525905511811024
 21
0.9992125984251968
 31
0.0
 11
-1.2527047244094489
 21
1.1211574803149607
 31
0.0
 11
-1.2527125984251968
 21
1.241732283464567
 31
0.0
 11
-1.2526062992125984
 21
1.3606141732283465
 31
0.0
 11
-1.2523543307086613
 21
1.4774488188976378
 31
0.0
 11
-1.2519409448818897
 21
1.5919055118110237
 31
0.0
 11
-1.2331496062992127
 21
1.6250551181102362
 31
0.0
 11
-1.2133031496062991
 21
1.6542401574803149
 31
0.0
 11
-1.1925748031496064
 21
1.6797244094488188
 31
0.0
 11
-1.1711456692913387
 21
1.7017716535433072
 31
0.0
 11
-1.1491968503937009
 21
1.7206299212598426
 31
0.0
 11
-1.1269173228346456
 21
1.7365708661417323
 31
0.0
 11
-1.1044803149606299
 21
1.7498503937007874
 31
0.0
 11
-1.0820826771653542
 21
1.760740157480315
 31
0.0
 11
-1.0598858267716535
 21
1.76948031496063
 31
0.0
 11
-1.0380944881889764
 21
1.7763503937007874
 31
0.0
 11
-1.0168779527559055
 21
1.7816023622047243
 31
0.0
 11
-0.9964291338582677
 21
1.785503937007874
 31
0.0
 11
-0.9769133858267717
 21
1.7883031496062991
 31
0.0
 11
-0.9585275590551181
 21
1.7902755905511811
 31
0.0
 11
-0.9414527559055118
 21
1.7916692913385828
 31
0.0
  0
LINE
  5
2D
100
AcDbEntity
  8
0
 62
     0
100
AcDbLine
 10
-0.941453
 20
1.791669
 30
0.0
 11
-0.92587
 21
1.79276
 31
0.0
  0
LINE
  5
2E
100
AcDbEntity
  8
0
 62
     0
100
AcDbLine
 10
-0.92587
 20
1.79276
 30
0.0
 11
-0.92587
 21
-0.025539
 31
0.0
  0
LINE
  5
2F
100
AcDbEntity
  8
0
 62
     0
100
AcDbLine
 10
-0.92587
 20
-0.025539
 30
0.0
 11
-0.399457
 21
-0.025539
 31
0.0
  0
SPLINE
  5
30
100
AcDbEntity
  8
0
 62
     0
100
AcDbSpline
210
0.0
220
0.0
230
1.0
 70
     0
 71
     3
 72
     0
 73
     0
 74
   144
 44
0.0000000001
 11
-0.3994566929133858
 21
-0.0255393700787402
 31
0.0
 11
-0.3693937007874016
 21
-0.0253622047244094
 31
0.0
 11
-0.3401456692913386
 21
-0.0248346456692913
 31
0.0
 11
-0.3117047244094488
 21
-0.0239566929133858
 31
0.0
 11
-0.2840826771653544
 21
-0.0227283464566929
 31
0.0
 11
-0.2572677165354331
 21
-0.0211456692913386
 31
0.0
 11
-0.2312755905511811
 21
-0.0192086614173228
 31
0.0
 11
-0.2060944881889764
 21
-0.0169173228346457
 31
0.0
 11
-0.181740157480315
 21
-0.0142716535433071
 31
0.0
 11
-0.1581929133858268
 21
-0.011259842519685
 31
0.0
 11
-0.1354803149606299
 21
-0.0079015748031496
 31
0.0
 11
-0.1135866141732284
 21
-0.0041811023622047
 31
0.0
 11
-0.0925275590551181
 21
-0.0001062992125984
 31
0.0
 11
-0.0722834645669291
 21
0.0043267716535433
 31
0.0
 11
-0.0528779527559055
 21
0.0091259842519685
 31
0.0
 11
-0.0342992125984252
 21
0.0142834645669291
 31
0.0
 11
-0.0165551181102362
 21
0.0198110236220472
 31
0.0
 11
0.0005511811023622
 21
0.0256535433070866
 31
0.0
 11
0.0172165354330709
 21
0.0317834645669291
 31
0.0
 11
0.0334330708661417
 21
0.0381968503937008
 31
0.0
 11
0.0492165354330709
 21
0.0448937007874016
 31
0.0
 11
0.0645551181102362
 21
0.0518740157480315
 31
0.0
 11
0.0794566929133858
 21
0.0591456692913386
 31
0.0
 11
0.0939173228346457
 21
0.0667047244094488
 31
0.0
 11
0.1079448818897638
 21
0.0745590551181102
 31
0.0
 11
0.1215236220472441
 21
0.0826929133858268
 31
0.0
 11
0.1346771653543307
 21
0.0911181102362205
 31
0.0
 11
0.1473897637795276
 21
0.0998346456692913
 31
0.0
 11
0.1596732283464567
 21
0.1088503937007874
 31
0.0
 11
0.171511811023622
 21
0.1181496062992126
 31
0.0
 11
0.1829291338582677
 21
0.127748031496063
 31
0.0
 11
0.1939055118110236
 21
0.1376377952755906
 31
0.0
 11
0.2044606299212599
 21
0.1478267716535433
 31
0.0
 11
0.2187834645669291
 21
0.1625669291338583
 31
0.0
 11
0.2327086614173228
 21
0.1779566929133858
 31
0.0
 11
0.2462283464566929
 21
0.1939842519685039
 31
0.0
 11
0.2593503937007874
 21
0.2106535433070866
 31
0.0
 11
0.2720590551181102
 21
0.2279527559055118
 31
0.0
 11
0.2843740157480315
 21
0.2458937007874016
 31
0.0
 11
0.2962795275590551
 21
0.2644606299212599
 31
0.0
 11
0.3077913385826772
 21
0.2836614173228346
 31
0.0
 11
0.3188818897637795
 21
0.3034763779527559
 31
0.0
 11
0.3295826771653543
 21
0.3239251968503937
 31
0.0
 11
0.3398700787401575
 21
0.344992125984252
 31
0.0
 11
0.3497677165354331
 21
0.3666771653543307
 31
0.0
 11
0.359251968503937
 21
0.3889724409448819
 31
0.0
 11
0.3683346456692914
 21
0.4118858267716535
 31
0.0
 11
0.377011811023622
 21
0.4354055118110236
 31
0.0
 11
0.3852913385826772
 21
0.4595433070866142
 31
0.0
 11
0.3931102362204724
 21
0.4843937007874016
 31
0.0
 11
0.4004370078740158
 21
0.5098858267716535
 31
0.0
 11
0.407255905511811
 21
0.5360157480314961
 31
0.0
 11
0.4135866141732283
 21
0.5627913385826772
 31
0.0
 11
0.4194094488188976
 21
0.5902007874015748
 31
0.0
 11
0.4247322834645669
 21
0.618259842519685
 31
0.0
 11
0.4295511811023622
 21
0.6469645669291338
 31
0.0
 11
0.4338700787401575
 21
0.6763228346456693
 31
0.0
 11
0.4376771653543307
 21
0.7063267716535433
 31
0.0
 11
0.4409842519685039
 21
0.736992125984252
 31
0.0
 11
0.4437795275590551
 21
0.7683070866141732
 31
0.0
 11
0.4460748031496063
 21
0.8002913385826772
 31
0.0
 11
0.4478543307086614
 21
0.8329330708661418
 31
0.0
 11
0.4491338582677165
 21
0.866244094488189
 31
0.0
 11
0.4499015748031496
 21
0.9002204724409448
 31
0.0
 11
0.4501614173228347
 21
0.9348700787401575
 31
0.0
 11
0.4496574803149606
 21
0.982492125984252
 31
0.0
 11
0.4481653543307086
 21
1.0287244094488188
 31
0.0
 11
0.4456732283464567
 21
1.0735511811023621
 31
0.0
 11
0.4422007874015748
 21
1.116988188976378
 31
0.0
 11
0.4377244094488189
 21
1.159015748031496
 31
0.0
 11
0.4322637795275591
 21
1.1996535433070865
 31
0.0
 11
0.4258110236220473
 21
1.2388818897637794
 31
0.0
 11
0.4183700787401575
 21
1.2767204724409449
 31
0.0
 11
0.4099330708661417
 21
1.3131496062992125
 31
0.0
 11
0.400511811023622
 21
1.3481889763779527
 31
0.0
 11
0.3901062992125984
 21
1.3818228346456694
 31
0.0
 11
0.3787125984251968
 21
1.4140669291338583
 31
0.0
 11
0.3663307086614173
 21
1.4448976377952756
 31
0.0
 11
0.3529645669291339
 21
1.4743425196850393
 31
0.0
 11
0.3386181102362205
 21
1.5023818897637795
 31
0.0
 11
0.3232913385826772
 21
1.5290275590551181
 31
0.0
 11
0.3071496062992126
 21
1.5545275590551182
 31
0.0
 11
0.2905905511811024
 21
1.5789409448818899
 31
0.0
 11
0.2736141732283465
 21
1.6022677165354331
 31
0.0
 11
0.2562204724409449
 21
1.624515748031496
 31
0.0
 11
0.2384015748031496
 21
1.6456732283464568
 31
0.0
 11
0.2201653543307087
 21
1.665751968503937
 31
0.0
 11
0.201503937007874
 21
1.6847519685039369
 31
0.0
 11
0.1824291338582677
 21
1.7026771653543307
 31
0.0
 11
0.1629173228346457
 21
1.719515748031496
 31
0.0
 11
0.1429881889763779
 21
1.7352913385826771
 31
0.0
 11
0.1226259842519685
 21
1.749988188976378
 31
0.0
 11
0.1018503937007874
 21
1.7636181102362205
 31
0.0
 11
0.0806377952755905
 21
1.7761692913385827
 31
0.0
 11
0.059003937007874
 21
1.7876614173228347
 31
0.0
 11
0.0369330708661417
 21
1.7980826771653544
 31
0.0
 11
0.0144448818897638
 21
1.8074488188976379
 31
0.0
 11
-0.0025433070866142
 21
1.8135905511811024
 31
0.0
 11
-0.0207952755905512
 21
1.8193385826771653
 31
0.0
 11
-0.0403070866141732
 21
1.8246771653543308
 31
0.0
 11
-0.0610826771653543
 21
1.8296259842519684
 31
0.0
 11
-0.0831062992125984
 21
1.8341653543307086
 31
0.0
 11
-0.1063858267716536
 21
1.8383110236220472
 31
0.0
 11
-0.1309133858267716
 21
1.8420551181102363
 31
0.0
 11
-0.1566929133858268
 21
1.8454055118110235
 31
0.0
 11
-0.1837086614173228
 21
1.8483503937007875
 31
0.0
 11
-0.2119685039370079
 21
1.8509055118110236
 31
0.0
 11
-0.2414685039370079
 21
1.8530629921259842
 31
0.0
 11
-0.2722125984251969
 21
1.8548307086614173
 31
0.0
 11
-0.3041850393700787
 21
1.8561968503937007
 31
0.0
 11
-0.3373937007874016
 21
1.8571771653543308
 31
0.0
 11
-0.3718228346456693
 21
1.857763779527559
 31
0.0
 11
-0.407492125984252
 21
1.8579645669291338
 31
0.0
 11
-0.4398897637795275
 21
1.8579645669291338
 31
0.0
 11
-0.4722874015748032
 21
1.8579645669291338
 31
0.0
 11
-0.5046850393700787
 21
1.8579645669291338
 31
0.0
 11
-0.5370826771653543
 21
1.8579645669291338
 31
0.0
 11
-0.5694803149606299
 21
1.8579645669291338
 31
0.0
 11
-0.6018779527559055
 21
1.8579645669291338
 31
0.0
 11
-0.6342755905511811
 21
1.8579645669291338
 31
0.0
 11
-0.6666771653543308
 21
1.8579645669291338
 31
0.0
 11
-0.6990748031496064
 21
1.8579645669291338
 31
0.0
 11
-0.7314724409448818
 21
1.8579645669291338
 31
0.0
 11
-0.7638700787401574
 21
1.8579645669291338
 31
0.0
 11
-0.7962677165354331
 21
1.8579645669291338
 31
0.0
 11
-0.8286653543307087
 21
1.8579645669291338
 31
0.0
 11
-0.8610629921259843
 21
1.8579645669291338
 31
0.0
 11
-0.8934606299212599
 21
1.8579645669291338
 31
0.0
 11
-0.9258700787401575
 21
1.8579645669291338
 31
0.0
 11
-0.9834133858267716
 21
1.8522677165354331
 31
0.0
 11
-1.0353307086614174
 21
1.8420944881889765
 31
0.0
 11
-1.0818818897637796
 21
1.8281141732283464
 31
0.0
 11
-1.1233385826771654
 21
1.8109999999999999
 31
0.0
 11
-1.1599566929133858
 21
1.7914133858267716
 31
0.0
 11
-1.1920196850393701
 21
1.7700433070866142
 31
0.0
 11
-1.2197834645669292
 21
1.7475472440944881
 31
0.0
 11
-1.2435196850393702
 21
1.7246102362204725
 31
0.0
 11
-1.263488188976378
 21
1.7018858267716535
 31
0.0
 11
-1.2799685039370079
 21
1.6800629921259842
 31
0.0
 11
-1.2932165354330709
 21
1.6598031496062993
 31
0.0
 11
-1.3035118110236221
 21
1.6417834645669291
 31
0.0
 11
-1.3111023622047244
 21
1.6266692913385827
 31
0.0
 11
-1.3162755905511812
 21
1.6151417322834645
 31
0.0
 11
-1.3192834645669291
 21
1.6078661417322835
 31
0.0
  0
LINE
  5
31
100
AcDbEntity
  8
0
 62
     0
100
AcDbLine
 10
0.051079
 20
2.149992
 30
0.0
 11
1.563091
 21
2.149992
 31
0.0
  0
SPLINE
  5
32
100
AcDbEntity
  8
0
 62
     0
100
AcDbSpline
210
0.0
220
0.0
230
1.0
 70
     0
 71
     3
 72
     0
 73
     0
 74
   112
 44
0.0000000001
 11
1.5630905511811024
 21
2.149992125984252
 31
0.0
 11
1.6036889763779527
 21
2.1497244094488188
 31
0.0
 11
1.6430590551181103
 21
2.1489409448818897
 31
0.0
 11
1.6811889763779528
 21
2.1476299212598424
 31
0.0
 11
1.7180866141732283
 21
2.1457992125984253
 31
0.0
 11
1.7537401574803149
 21
2.1434370078740157
 31
0.0
 11
1.7881614173228346
 21
2.1405669291338585
 31
0.0
 11
1.8213425196850395
 21
2.1371732283464566
 31
0.0
 11
1.8532874015748031
 21
2.1332637795275589
 31
0.0
 11
1.8839881889763779
 21
2.1288307086614173
 31
0.0
 11
1.9134566929133858
 21
2.1238818897637795
 31
0.0
 11
1.9416811023622047
 21
2.1184173228346457
 31
0.0
 11
1.9686732283464567
 21
2.1124409448818899
 31
0.0
 11
1.9944212598425197
 21
2.1059448818897639
 31
0.0
 11
2.0189370078740159
 21
2.0989409448818899
 31
0.0
 11
2.0422086614173227
 21
2.0914251968503939
 31
0.0
 11
2.0642480314960632
 21
2.0834015748031498
 31
0.0
 11
2.0853897637795273
 21
2.0747165354330708
 31
0.0
 11
2.1060039370078738
 21
2.0652401574803148
 31
0.0
 11
2.1260787401574803
 21
2.0549685039370078
 31
0.0
 11
2.1456220472440943
 21
2.0439055118110234
 31
0.0
 11
2.1646220472440945
 21
2.0320433070866142
 31
0.0
 11
2.1830984251968504
 21
2.0193897637795275
 31
0.0
 11
2.2010354330708664
 21
2.0059409448818899
 31
0.0
 11
2.2184488188976377
 21
1.9917007874015749
 31
0.0
 11
2.2353188976377951
 21
1.9766614173228347
 31
0.0
 11
2.2516692913385827
 21
1.9608307086614174
 31
0.0
 11
2.2674842519685039
 21
1.9442047244094489
 31
0.0
 11
2.2827755905511813
 21
1.9267874015748032
 31
0.0
 11
2.2975314960629922
 21
1.9085708661417322
 31
0.0
 11
2.311763779527559
 21
1.8895669291338584
 31
0.0
 11
2.325468503937008
 21
1.8697677165354332
 31
0.0
 11
2.3386535433070867
 21
1.8491811023622047
 31
0.0
 11
2.351051181102362
 21
1.8279448818897637
 31
0.0
 11
2.3626496062992124
 21
1.8064448818897638
 31
0.0
 11
2.3734409448818896
 21
1.7846692913385827
 31
0.0
 11
2.3834330708661415
 21
1.7626338582677166
 31
0.0
 11
2.3926102362204724
 21
1.7403228346456694
 31
0.0
 11
2.4009960629921259
 21
1.7177480314960629
 31
0.0
 11
2.4085787401574805
 21
1.6949015748031495
 31
0.0
 11
2.4153582677165355
 21
1.6717913385826773
 31
0.0
 11
2.4213346456692912
 21
1.6484015748031495
 31
0.0
 11
2.4265118110236221
 21
1.6247519685039371
 31
0.0
 11
2.4308897637795277
 21
1.6008267716535434
 31
0.0
 11
2.4344724409448819
 21
1.5766417322834645
 31
0.0
 11
2.4372559055118108
 21
1.5521771653543308
 31
0.0
 11
2.4392440944881888
 21
1.5274527559055118
 31
0.0
 11
2.4404330708661419
 21
1.5024527559055119
 31
0.0
 11
2.4408346456692915
 21
1.4771889763779527
 31
0.0
 11
2.4401732283464566
 21
1.4446811023622048
 31
0.0
 11
2.438188976377953
 21
1.4128385826771654
 31
0.0
 11
2.4348818897637794
 21
1.3816496062992125
 31
0.0
 11
2.430263779527559
 21
1.3511220472440946
 31
0.0
 11
2.4243070866141734
 21
1.321240157480315
 31
0.0
 11
2.4170314960629922
 21
1.2920118110236221
 31
0.0
 11
2.4084251968503936
 21
1.2634330708661416
 31
0.0
 11
2.3984960629921259
 21
1.235503937007874
 31
0.0
 11
2.3872204724409447
 21
1.2082165354330709
 31
0.0
 11
2.3746220472440944
 21
1.1815748031496063
 31
0.0
 11
2.3606811023622045
 21
1.1555748031496063
 31
0.0
 11
2.3454094488188977
 21
1.1302165354330709
 31
0.0
 11
2.3287952755905512
 21
1.105496062992126
 31
0.0
 11
2.3108425196850395
 21
1.0814133858267716
 31
0.0
 11
2.2915472440944882
 21
1.0579645669291338
 31
0.0
 11
2.2709133858267716
 21
1.0351574803149606
 31
0.0
 11
2.2489763779527561
 21
1.0131692913385826
 31
0.0
 11
2.2255944881889764
 21
0.9922086614173228
 31
0.0
 11
2.2007559055118109
 21
0.9722677165354331
 31
0.0
 11
2.1744724409448817
 21
0.9533503937007875
 31
0.0
 11
2.146732283464567
 21
0.9354527559055118
 31
0.0
 11
2.1175511811023622
 21
0.9185826771653544
 31
0.0
 11
2.0869173228346458
 21
0.9027322834645669
 31
0.0
 11
2.0548464566929132
 21
0.8879094488188977
 31
0.0
 11
2.0213149606299212
 21
0.8741023622047244
 31
0.0
 11
1.9863464566929134
 21
0.8613228346456693
 31
0.0
 11
1.9499251968503937
 21
0.8495590551181103
 31
0.0
 11
1.9120708661417323
 21
0.8388267716535434
 31
0.0
 11
1.8727637795275591
 21
0.8291102362204724
 31
0.0
 11
1.8320236220472441
 21
0.8204212598425197
 31
0.0
 11
1.7898346456692913
 21
0.8127519685039371
 31
0.0
 11
1.7462165354330708
 21
0.8061062992125985
 31
0.0
 11
1.7622204724409449
 21
0.7983582677165354
 31
0.0
 11
1.7777283464566929
 21
0.7906299212598426
 31
0.0
 11
1.792740157480315
 21
0.7829133858267716
 31
0.0
 11
1.807263779527559
 21
0.7752165354330709
 31
0.0
 11
1.8212874015748031
 21
0.7675196850393701
 31
0.0
 11
1.8348228346456692
 21
0.7598385826771653
 31
0.0
 11
1.8478622047244095
 21
0.7521614173228346
 31
0.0
 11
1.8604133858267717
 21
0.744496062992126
 31
0.0
 11
1.8724645669291338
 21
0.7368307086614173
 31
0.0
 11
1.8840275590551181
 21
0.7291732283464567
 31
0.0
 11
1.8951023622047245
 21
0.72151968503937
 31
0.0
 11
1.9056889763779528
 21
0.7138661417322835
 31
0.0
 11
1.9157755905511811
 21
0.7062125984251969
 31
0.0
 11
1.9253818897637796
 21
0.6985590551181102
 31
0.0
 11
1.934496062992126
 21
0.6909055118110237
 31
0.0
 11
1.9431220472440944
 21
0.683255905511811
 31
0.0
 11
1.9609527559055118
 21
0.6666535433070866
 31
0.0
 11
1.9786929133858269
 21
0.6495433070866141
 31
0.0
 11
1.9963267716535433
 21
0.6319212598425197
 31
0.0
 11
2.0138582677165355
 21
0.6137913385826772
 31
0.0
 11
2.0312716535433073
 21
0.5951417322834646
 31
0.0
 11
2.0485748031496063
 21
0.5759763779527559
 31
0.0
 11
2.0657480314960628
 21
0.5562874015748032
 31
0.0
 11
2.082807086614173
 21
0.5360866141732283
 31
0.0
 11
2.099724409448819
 21
0.5153503937007874
 31
0.0
 11
2.1165078740157481
 21
0.4940984251968504
 31
0.0
 11
2.1331496062992126
 21
0.4723149606299212
 31
0.0
 11
2.1496496062992128
 21
0.450011811023622
 31
0.0
 11
2.1659921259842521
 21
0.4271732283464567
 31
0.0
 11
2.1821850393700788
 21
0.4038031496062992
 31
0.0
 11
2.1982125984251968
 21
0.3799015748031496
 31
0.0
  0
LINE
  5
33
100
AcDbEntity
  8
0
 62
     0
100
AcDbLine
 10
2.198213
 20
0.379902
 30
0.0
 11
2.214079
 21
0.355469
 31
0.0
  0
LINE
  5
34
100
AcDbEntity
  8
0
 62
     0
100
AcDbLine
 10
2.214079
 20
0.355469
 30
0.0
 11
2.654756
 21
-0.334646
 31
0.0
  0
LINE
  5
35
100
AcDbEntity
  8
0
 62
     0
100
AcDbLine
 10
2.654756
 20
-0.334646
 30
0.0
 11
2.244299
 21
-0.334646
 31
0.0
  0
LINE
  5
36
100
AcDbEntity
  8
0
 62
     0
100
AcDbLine
 10
2.244299
 20
-0.334646
 30
0.0
 11
1.906382
 21
0.197598
 31
0.0
  0
SPLINE
  5
37
100
AcDbEntity
  8
0
 62
     0
100
AcDbSpline
210
0.0
220
0.0
230
1.0
 70
     0
 71
     3
 72
     0
 73
     0
 74
    64
 44
0.0000000001
 11
1.9063818897637794
 21
0.1975984251968504
 31
0.0
 11
1.8888897637795277
 21
0.2249763779527559
 31
0.0
 11
1.871740157480315
 21
0.2515314960629921
 31
0.0
 11
1.8549291338582676
 21
0.277248031496063
 31
0.0
 11
1.8384724409448818
 21
0.3021456692913386
 31
0.0
 11
1.8223622047244095
 21
0.3262047244094488
 31
0.0
 11
1.8066181102362204
 21
0.3494488188976378
 31
0.0
 11
1.791240157480315
 21
0.3718661417322834
 31
0.0
 11
1.7762401574803151
 21
0.3934645669291338
 31
0.0
 11
1.7616102362204724
 21
0.414236220472441
 31
0.0
 11
1.7473740157480315
 21
0.4341929133858268
 31
0.0
 11
1.733527559055118
 21
0.4533346456692913
 31
0.0
 11
1.7200866141732283
 21
0.4716653543307087
 31
0.0
 11
1.7070433070866142
 21
0.4891732283464567
 31
0.0
 11
1.6944212598425197
 21
0.5058818897637796
 31
0.0
 11
1.6822165354330709
 21
0.5217755905511811
 31
0.0
 11
1.6704409448818898
 21
0.5368700787401575
 31
0.0
 11
1.6589370078740158
 21
0.5512913385826772
 31
0.0
 11
1.6476062992125984
 21
0.5651811023622048
 31
0.0
 11
1.6364330708661416
 21
0.5785196850393701
 31
0.0
 11
1.6254212598425197
 21
0.5913228346456693
 31
0.0
 11
1.6145590551181102
 21
0.6035708661417323
 31
0.0
 11
1.6038582677165354
 21
0.615271653543307
 31
0.0
 11
1.5933110236220474
 21
0.6264212598425197
 31
0.0
 11
1.5829212598425197
 21
0.6370196850393701
 31
0.0
 11
1.5726732283464566
 21
0.6470551181102362
 31
0.0
 11
1.5625787401574802
 21
0.6565393700787402
 31
0.0
 11
1.5526338582677166
 21
0.6654606299212599
 31
0.0
 11
1.5428425196850393
 21
0.6738267716535433
 31
0.0
 11
1.5331929133858269
 21
0.6816220472440945
 31
0.0
 11
1.5236889763779529
 21
0.6888582677165355
 31
0.0
 11
1.5143228346456692
 21
0.6955196850393701
 31
0.0
 11
1.5051102362204725
 21
0.7016259842519685
 31
0.0
 11
1.4959488188976378
 21
0.7074370078740158
 31
0.0
 11
1.486787401574803
 21
0.7130472440944882
 31
0.0
 11
1.4776102362204724
 21
0.7184409448818898
 31
0.0
 11
1.4684251968503936
 21
0.7236259842519686
 31
0.0
 11
1.4592204724409448
 21
0.7285826771653543
 31
0.0
 11
1.45
 21
0.7333228346456693
 31
0.0
 11
1.440759842519685
 21
0.7378346456692914
 31
0.0
 11
1.4315
 21
0.7421220472440945
 31
0.0
 11
1.4222086614173228
 21
0.7461653543307086
 31
0.0
 11
1.4129015748031497
 21
0.749976377952756
 31
0.0
 11
1.4035629921259842
 21
0.7535433070866142
 31
0.0
 11
1.3942047244094489
 21
0.7568700787401574
 31
0.0
 11
1.3848070866141733
 21
0.7599448818897638
 31
0.0
 11
1.3753818897637795
 21
0.7627677165354331
 31
0.0
 11
1.3659212598425197
 21
0.7653307086614173
 31
0.0
 11
1.3564291338582677
 21
0.7676456692913386
 31
0.0
 11
1.3491929133858267
 21
0.7691653543307087
 31
0.0
 11
1.3414173228346458
 21
0.7705669291338583
 31
0.0
 11
1.3330826771653543
 21
0.7718425196850394
 31
0.0
 11
1.3242086614173227
 21
0.773011811023622
 31
0.0
 11
1.3147716535433072
 21
0.7740590551181102
 31
0.0
 11
1.3047913385826773
 21
0.775
 31
0.0
 11
1.2942519685039371
 21
0.7758307086614174
 31
0.0
 11
1.2831653543307087
 21
0.7765629921259842
 31
0.0
 11
1.271515748031496
 21
0.7771889763779527
 31
0.0
 11
1.2593188976377954
 21
0.7777244094488189
 31
0.0
 11
1.2465629921259842
 21
0.7781614173228346
 31
0.0
 11
1.2332559055118111
 21
0.7785196850393701
 31
0.0
 11
1.2193858267716535
 21
0.7787874015748032
 31
0.0
 11
1.2049645669291338
 21
0.7789763779527559
 31
0.0
 11
1.189984251968504
 21
0.7790866141732283
 31
0.0
  0
LINE
  5
38
100
AcDbEntity
  8
0
 62
     0
100
AcDbLine
 10
1.189984
 20
0.779087
 30
0.0
 11
1.174449
 21
0.779126
 31
0.0
  0
LINE
  5
39
100
AcDbEntity
  8
0
 62
     0
100
AcDbLine
 10
1.174449
 20
0.779126
 30
0.0
 11
0.841122
 21
0.779126
 31
0.0
  0
LINE
  5
3A
100
AcDbEntity
  8
0
 62
     0
100
AcDbLine
 10
0.841122
 20
0.779126
 30
0.0
 11
0.842122
 21
1.061567
 31
0.0
  0
LINE
  5
3B
100
AcDbEntity
  8
0
 62
     0
100
AcDbLine
 10
0.842122
 20
1.061567
 30
0.0
 11
1.497646
 21
1.061567
 31
0.0
  0
SPLINE
  5
3C
100
AcDbEntity
  8
0
 62
     0
100
AcDbSpline
210
0.0
220
0.0
230
1.0
 70
     0
 71
     3
 72
     0
 73
     0
 74
   113
 44
0.0000000001
 11
1.4976456692913387
 21
1.0615669291338583
 31
0.0
 11
1.5251456692913385
 21
1.0617440944881891
 31
0.0
 11
1.5519133858267717
 21
1.0622913385826771
 31
0.0
 11
1.5779291338582677
 21
1.0632047244094489
 31
0.0
 11
1.6032047244094487
 21
1.064484251968504
 31
0.0
 11
1.6277244094488188
 21
1.0661220472440944
 31
0.0
 11
1.6514921259842519
 21
1.0681259842519686
 31
0.0
 11
1.6745000000000001
 21
1.0704960629921261
 31
0.0
 11
1.696763779527559
 21
1.073228346456693
 31
0.0
 11
1.718251968503937
 21
1.0763188976377953
 31
0.0
 11
1.7389881889763779
 21
1.0797716535433071
 31
0.0
 11
1.7589527559055118
 21
1.0835826771653543
 31
0.0
 11
1.7781614173228346
 21
1.087763779527559
 31
0.0
 11
1.7965905511811024
 21
1.0922952755905513
 31
0.0
 11
1.8142519685039371
 21
1.0971929133858267
 31
0.0
 11
1.8311417322834647
 21
1.1024488188976378
 31
0.0
 11
1.847251968503937
 21
1.1080669291338583
 31
0.0
 11
1.8628228346456692
 21
1.1141023622047244
 31
0.0
 11
1.8779133858267716
 21
1.1205748031496063
 31
0.0
 11
1.8925236220472441
 21
1.1274685039370078
 31
0.0
 11
1.9066574803149607
 21
1.1347913385826771
 31
0.0
 11
1.9203031496062992
 21
1.1425393700787401
 31
0.0
 11
1.9334803149606299
 21
1.1507204724409448
 31
0.0
 11
1.9461692913385826
 21
1.1593307086614173
 31
0.0
 11
1.9583897637795276
 21
1.1683740157480316
 31
0.0
 11
1.9701220472440946
 21
1.1778346456692914
 31
0.0
 11
1.9813858267716535
 21
1.1877322834645669
 31
0.0
 11
1.9921692913385827
 21
1.1980590551181103
 31
0.0
 11
2.0024842519685038
 21
1.2088188976377954
 31
0.0
 11
2.0123149606299213
 21
1.2200039370078739
 31
0.0
 11
2.0216811023622046
 21
1.2316299212598425
 31
0.0
 11
2.0305708661417321
 21
1.2436850393700787
 31
0.0
 11
2.0389921259842518
 21
1.2561732283464566
 31
0.0
 11
2.0469133858267718
 21
1.2689330708661417
 31
0.0
 11
2.0543228346456694
 21
1.2818385826771654
 31
0.0
 11
2.0612204724409451
 21
1.2948779527559056
 31
0.0
 11
2.0676141732283466
 21
1.3080590551181102
 31
0.0
 11
2.0734921259842518
 21
1.3213700787401574
 31
0.0
 11
2.0788622047244094
 21
1.3348267716535434
 31
0.0
 11
2.0837165354330707
 21
1.3484212598425196
 31
0.0
 11
2.0880669291338583
 21
1.3621574803149605
 31
0.0
 11
2.0918976377952756
 21
1.3760275590551181
 31
0.0
 11
2.0952204724409449
 21
1.3900472440944882
 31
0.0
 11
2.0980314960629922
 21
1.4042086614173228
 31
0.0
 11
2.1003385826771654
 21
1.418515748031496
 31
0.0
 11
2.1021259842519684
 21
1.4329606299212598
 31
0.0
 11
2.1034055118110238
 21
1.4475551181102362
 31
0.0
 11
2.1041732283464567
 21
1.4622952755905512
 31
0.0
 11
2.1044330708661416
 21
1.4771889763779527
 31
0.0
 11
2.1039370078740158
 21
1.4987913385826772
 31
0.0
 11
2.1024566929133859
 21
1.5199094488188976
 31
0.0
 11
2.0999881889763778
 21
1.5405393700787402
 31
0.0
 11
2.0965354330708661
 21
1.5606929133858267
 31
0.0
 11
2.0920826771653545
 21
1.5803503937007874
 31
0.0
 11
2.0866496062992126
 21
1.5995275590551181
 31
0.0
 11
2.0802244094488187
 21
1.6182204724409448
 31
0.0
 11
2.0728070866141732
 21
1.6364370078740158
 31
0.0
 11
2.0643858267716535
 21
1.6541574803149606
 31
0.0
 11
2.0549803149606301
 21
1.6714055118110236
 31
0.0
 11
2.0445708661417323
 21
1.6881653543307087
 31
0.0
 11
2.0331732283464565
 21
1.7044527559055118
 31
0.0
 11
2.020763779527559
 21
1.720251968503937
 31
0.0
 11
2.0073661417322834
 21
1.7355787401574803
 31
0.0
 11
1.9929645669291338
 21
1.7504212598425197
 31
0.0
 11
1.9775669291338582
 21
1.7647952755905512
 31
0.0
 11
1.9611377952755906
 21
1.7784370078740157
 31
0.0
 11
1.9435629921259843
 21
1.791236220472441
 31
0.0
 11
1.9248385826771655
 21
1.8031692913385826
 31
0.0
 11
1.9049606299212598
 21
1.814244094488189
 31
0.0
 11
1.8839251968503936
 21
1.8244370078740157
 31
0.0
 11
1.861736220472441
 21
1.833763779527559
 31
0.0
 11
1.8383976377952755
 21
1.8422007874015749
 31
0.0
 11
1.8139015748031495
 21
1.849748031496063
 31
0.0
 11
1.7882480314960629
 21
1.8563937007874016
 31
0.0
 11
1.7614370078740158
 21
1.8621417322834646
 31
0.0
 11
1.7334685039370079
 21
1.8669763779527559
 31
0.0
 11
1.7043543307086615
 21
1.8708976377952755
 31
0.0
 11
1.6740708661417323
 21
1.8738937007874015
 31
0.0
 11
1.6426377952755906
 21
1.875968503937008
 31
0.0
 11
1.6100393700787401
 21
1.8771102362204724
 31
0.0
 11
1.5762952755905513
 21
1.8773110236220472
 31
0.0
 11
1.513988188976378
 21
1.8768188976377953
 31
0.0
 11
1.4516141732283465
 21
1.8763582677165354
 31
0.0
 11
1.3891692913385827
 21
1.8759055118110237
 31
0.0
 11
1.3266574803149607
 21
1.8754685039370078
 31
0.0
 11
1.2640511811023623
 21
1.8750196850393701
 31
0.0
 11
1.2013661417322834
 21
1.8745669291338583
 31
0.0
 11
1.1385826771653544
 21
1.8740944881889763
 31
0.0
 11
1.075712598425197
 21
1.8735984251968505
 31
0.0
 11
1.012728346456693
 21
1.8730629921259843
 31
0.0
 11
0.9496456692913385
 21
1.872488188976378
 31
0.0
 11
0.8864448818897638
 21
1.8718622047244093
 31
0.0
 11
0.8231299212598425
 21
1.8711850393700789
 31
0.0
 11
0.7596889763779527
 21
1.8704330708661416
 31
0.0
 11
0.6961259842519685
 21
1.8696181102362204
 31
0.0
 11
0.6324251968503937
 21
1.8687165354330708
 31
0.0
 11
0.5685944881889764
 21
1.8677283464566929
 31
0.0
 11
0.5601535433070867
 21
1.875775590551181
 31
0.0
 11
0.5484724409448819
 21
1.8883582677165354
 31
0.0
 11
0.5335629921259842
 21
1.904771653543307
 31
0.0
 11
0.5154409448818897
 21
1.9243267716535433
 31
0.0
 11
0.4941023622047244
 21
1.9463149606299213
 31
0.0
 11
0.4695748031496063
 21
1.9700511811023622
 31
0.0
 11
0.4418622047244095
 21
1.9948346456692914
 31
0.0
 11
0.4109803149606299
 21
2.0199685039370077
 31
0.0
 11
0.3769291338582677
 21
2.0447480314960629
 31
0.0
 11
0.3397322834645669
 21
2.068488188976378
 31
0.0
 11
0.2993976377952756
 21
2.0904842519685038
 31
0.0
 11
0.2559409448818898
 21
2.1100511811023623
 31
0.0
 11
0.2093622047244095
 21
2.126476377952756
 31
0.0
 11
0.1596889763779528
 21
2.1390748031496063
 31
0.0
 11
0.1069212598425197
 21
2.1471456692913384
 31
0.0
 11
0.0510787401574803
 21
2.149992125984252
 31
0.0
  0
LINE
  5
3D
100
AcDbEntity
  8
0
 62
     0
100
AcDbLine
 10
-3.245315
 20
-0.729343
 30
0.0
 11
-3.344902
 21
-0.472303
 31
0.0
  0
LINE
  5
3E
100
AcDbEntity
  8
0
 62
     0
100
AcDbLine
 10
-3.344902
 20
-0.472303
 30
0.0
 11
-3.308035
 21
-0.472303
 31
0.0
  0
LINE
  5
3F
100
AcDbEntity
  8
0
 62
     0
100
AcDbLine
 10
-3.308035
 20
-0.472303
 30
0.0
 11
-3.241244
 21
-0.659024
 31
0.0
  0
SPLINE
  5
40
100
AcDbEntity
  8
0
 62
     0
100
AcDbSpline
210
0.0
220
0.0
230
1.0
 70
     0
 71
     3
 72
     0
 73
     0
 74
    32
 44
0.0000000001
 11
-3.2412440944881888
 21
-0.6590236220472441
 31
0.0
 11
-3.240240157480315
 21
-0.6618110236220473
 31
0.0
 11
-3.2392637795275592
 21
-0.6645866141732284
 31
0.0
 11
-3.2383031496062991
 21
-0.6673385826771654
 31
0.0
 11
-3.2373700787401574
 21
-0.6700708661417323
 31
0.0
 11
-3.2364488188976379
 21
-0.6727755905511811
 31
0.0
 11
-3.2355590551181104
 21
-0.6754645669291338
 31
0.0
 11
-3.2346850393700786
 21
-0.6781299212598425
 31
0.0
 11
-3.2338385826771652
 21
-0.6807755905511811
 31
0.0
 11
-3.2330000000000001
 21
-0.6833937007874016
 31
0.0
 11
-3.2321929133858269
 21
-0.685992125984252
 31
0.0
 11
-3.2314015748031495
 21
-0.6885669291338583
 31
0.0
 11
-3.2306377952755905
 21
-0.6911181102362205
 31
0.0
 11
-3.2298858267716537
 21
-0.6936456692913385
 31
0.0
 11
-3.2291653543307088
 21
-0.6961496062992126
 31
0.0
 11
-3.2284566929133858
 21
-0.6986299212598425
 31
0.0
 11
-3.2277795275590551
 21
-0.7010944881889764
 31
0.0
 11
-3.227015748031496
 21
-0.6984606299212598
 31
0.0
 11
-3.2262401574803148
 21
-0.6958385826771654
 31
0.0
 11
-3.2254527559055117
 21
-0.6932047244094488
 31
0.0
 11
-3.2246535433070864
 21
-0.6905826771653544
 31
0.0
 11
-3.2238346456692915
 21
-0.6879488188976378
 31
0.0
 11
-3.2230039370078738
 21
-0.6853267716535433
 31
0.0
 11
-3.2221614173228348
 21
-0.6827007874015748
 31
0.0
 11
-3.2213070866141731
 21
-0.6800787401574803
 31
0.0
 11
-3.2204291338582678
 21
-0.6774448818897638
 31
0.0
 11
-3.2195393700787402
 21
-0.6748149606299213
 31
0.0
 11
-3.2186338582677165
 21
-0.6721811023622047
 31
0.0
 11
-3.217716535433071
 21
-0.6695590551181102
 31
0.0
 11
-3.2167795275590549
 21
-0.6669251968503938
 31
0.0
 11
-3.2158346456692914
 21
-0.6642913385826772
 31
0.0
 11
-3.2148700787401574
 21
-0.6616574803149606
 31
0.0
  0
LINE
  5
41
100
AcDbEntity
  8
0
 62
     0
100
AcDbLine
 10
-3.21487
 20
-0.661657
 30
0.0
 11
-3.213894
 21
-0.659024
 31
0.0
  0
LINE
  5
42
100
AcDbEntity
  8
0
 62
     0
100
AcDbLine
 10
-3.213894
 20
-0.659024
 30
0.0
 11
-3.144472
 21
-0.472303
 31
0.0
  0
LINE
  5
43
100
AcDbEntity
  8
0
 62
     0
100
AcDbLine
 10
-3.144472
 20
-0.472303
 30
0.0
 11
-3.109764
 21
-0.472303
 31
0.0
  0
LINE
  5
44
100
AcDbEntity
  8
0
 62
     0
100
AcDbLine
 10
-3.109764
 20
-0.472303
 30
0.0
 11
-3.210425
 21
-0.729343
 31
0.0
  0
LINE
  5
45
100
AcDbEntity
  8
0
 62
     0
100
AcDbLine
 10
-3.210425
 20
-0.729343
 30
0.0
 11
-3.245315
 21
-0.729343
 31
0.0
  0
LINE
  5
46
100
AcDbEntity
  8
0
 62
     0
100
AcDbLine
 10
-2.973669
 20
-0.729343
 30
0.0
 11
-2.973669
 21
-0.472303
 31
0.0
  0
LINE
  5
47
100
AcDbEntity
  8
0
 62
     0
100
AcDbLine
 10
-2.973669
 20
-0.472303
 30
0.0
 11
-2.939673
 21
-0.472303
 31
0.0
  0
LINE
  5
48
100
AcDbEntity
  8
0
 62
     0
100
AcDbLine
 10
-2.939673
 20
-0.472303
 30
0.0
 11
-2.939673
 21
-0.729343
 31
0.0
  0
LINE
  5
49
100
AcDbEntity
  8
0
 62
     0
100
AcDbLine
 10
-2.939673
 20
-0.729343
 30
0.0
 11
-2.973669
 21
-0.729343
 31
0.0
  0
LINE
  5
4A
100
AcDbEntity
  8
0
 62
     0
100
AcDbLine
 10
-2.779941
 20
-0.729343
 30
0.0
 11
-2.779941
 21
-0.472303
 31
0.0
  0
LINE
  5
4B
100
AcDbEntity
  8
0
 62
     0
100
AcDbLine
 10
-2.779941
 20
-0.472303
 30
0.0
 11
-2.691425
 21
-0.472303
 31
0.0
  0
SPLINE
  5
4C
100
AcDbEntity
  8
0
 62
     0
100
AcDbSpline
210
0.0
220
0.0
230
1.0
 70
     0
 71
     3
 72
     0
 73
     0
 74
   144
 44
0.0000000001
 11
-2.6914251968503935
 21
-0.4723031496062992
 31
0.0
 11
-2.687728346456693
 21
-0.4723149606299212
 31
0.0
 11
-2.6841456692913388
 21
-0.4723582677165354
 31
0.0
 11
-2.6806732283464565
 21
-0.4724291338582677
 31
0.0
 11
-2.6773188976377953
 21
-0.4725354330708662
 31
0.0
 11
-2.6740629921259842
 21
-0.4726653543307087
 31
0.0
 11
-2.6709291338582677
 21
-0.4728228346456693
 31
0.0
 11
-2.6678976377952757
 21
-0.4730118110236221
 31
0.0
 11
-2.6649881889763778
 21
-0.473236220472441
 31
0.0
 11
-2.6621771653543309
 21
-0.4734803149606299
 31
0.0
 11
-2.6594842519685038
 21
-0.473755905511811
 31
0.0
 11
-2.6568976377952755
 21
-0.4740629921259842
 31
0.0
 11
-2.6544291338582675
 21
-0.4743976377952756
 31
0.0
 11
-2.65205905511811
 21
-0.474755905511811
 31
0.0
 11
-2.6498110236220471
 21
-0.4751456692913386
 31
0.0
 11
-2.6476653543307087
 21
-0.4755669291338583
 31
0.0
 11
-2.6456417322834644
 21
-0.476015748031496
 31
0.0
 11
-2.6429015748031497
 21
-0.4766692913385827
 31
0.0
 11
-2.6402165354330709
 21
-0.4773976377952756
 31
0.0
 11
-2.6375826771653545
 21
-0.4781850393700787
 31
0.0
 11
-2.6349999999999998
 21
-0.4790472440944882
 31
0.0
 11
-2.632464566929134
 21
-0.4799685039370079
 31
0.0
 11
-2.6299842519685037
 21
-0.4809606299212598
 31
0.0
 11
-2.6275511811023624
 21
-0.4820118110236221
 31
0.0
 11
-2.6251732283464566
 21
-0.4831338582677165
 31
0.0
 11
-2.6228385826771654
 21
-0.4843110236220473
 31
0.0
 11
-2.6205590551181102
 21
-0.4855590551181103
 31
0.0
 11
-2.6183267716535434
 21
-0.4868700787401575
 31
0.0
 11
-2.6161496062992127
 21
-0.488248031496063
 31
0.0
 11
-2.61401968503937
 21
-0.4896811023622048
 31
0.0
 11
-2.6119409448818898
 21
-0.4911889763779528
 31
0.0
 11
-2.6099133858267716
 21
-0.492751968503937
 31
0.0
 11
-2.6079409448818898
 21
-0.4943897637795275
 31
0.0
 11
-2.6054409448818898
 21
-0.4965748031496063
 31
0.0
 11
-2.6030236220472442
 21
-0.4988385826771654
 31
0.0
 11
-2.6006811023622047
 21
-0.5011771653543307
 31
0.0
 11
-2.5984212598425196
 21
-0.5035866141732284
 31
0.0
 11
-2.596236220472441
 21
-0.5060669291338583
 31
0.0
 11
-2.5941377952755906
 21
-0.5086259842519685
 31
0.0
 11
-2.5921141732283464
 21
-0.511259842519685
 31
0.0
 11
-2.5901771653543308
 21
-0.5139685039370079
 31
0.0
 11
-2.5883110236220475
 21
-0.5167440944881889
 31
0.0
 11
-2.5865314960629919
 21
-0.5196023622047244
 31
0.0
 11
-2.5848267716535434
 21
-0.5225314960629921
 31
0.0
 11
-2.5832086614173226
 21
-0.5255393700787402
 31
0.0
 11
-2.5816653543307089
 21
-0.5286181102362205
 31
0.0
 11
-2.580208661417323
 21
-0.5317716535433071
 31
0.0
 11
-2.5788307086614175
 21
-0.535003937007874
 31
0.0
 11
-2.5775393700787403
 21
-0.5383149606299212
 31
0.0
 11
-2.5763070866141731
 21
-0.5416850393700787
 31
0.0
 11
-2.5751574803149606
 21
-0.5451181102362205
 31
0.0
 11
-2.5740866141732281
 21
-0.5486062992125984
 31
0.0
 11
-2.5730984251968505
 21
-0.5521574803149606
 31
0.0
 11
-2.5721850393700789
 21
-0.5557637795275591
 31
0.0
 11
-2.5713582677165356
 21
-0.5594330708661417
 31
0.0
 11
-2.5706102362204724
 21
-0.5631614173228347
 31
0.0
 11
-2.56994094488189
 21
-0.5669566929133858
 31
0.0
 11
-2.5693464566929132
 21
-0.5707992125984251
 31
0.0
 11
-2.5688346456692912
 21
-0.5747086614173228
 31
0.0
 11
-2.5684015748031497
 21
-0.5786732283464567
 31
0.0
 11
-2.5680511811023621
 21
-0.5827047244094489
 31
0.0
 11
-2.567775590551181
 21
-0.5867874015748031
 31
0.0
 11
-2.5675787401574803
 21
-0.5909370078740157
 31
0.0
 11
-2.5674606299212597
 21
-0.5951456692913386
 31
0.0
 11
-2.5674251968503938
 21
-0.5994173228346457
 31
0.0
 11
-2.5674488188976379
 21
-0.6030433070866141
 31
0.0
 11
-2.5675314960629922
 21
-0.6066220472440945
 31
0.0
 11
-2.5676614173228347
 21
-0.6101456692913386
 31
0.0
 11
-2.5678503937007875
 21
-0.6136259842519685
 31
0.0
 11
-2.5680866141732284
 21
-0.6170472440944882
 31
0.0
 11
-2.5683818897637796
 21
-0.6204251968503937
 31
0.0
 11
-2.5687283464566928
 21
-0.623744094488189
 31
0.0
 11
-2.5691338582677163
 21
-0.6270196850393701
 31
0.0
 11
-2.5695866141732284
 21
-0.6302322834645669
 31
0.0
 11
-2.5700984251968504
 21
-0.6333976377952756
 31
0.0
 11
-2.5706614173228348
 21
-0.636507874015748
 31
0.0
 11
-2.5712834645669291
 21
-0.6395748031496064
 31
0.0
 11
-2.571952755905512
 21
-0.6425787401574803
 31
0.0
 11
-2.5726850393700786
 21
-0.6455393700787402
 31
0.0
 11
-2.5734645669291338
 21
-0.6484448818897638
 31
0.0
 11
-2.5743070866141733
 21
-0.6513031496062992
 31
0.0
 11
-2.5751692913385829
 21
-0.6540944881889764
 31
0.0
 11
-2.5760669291338583
 21
-0.6568307086614174
 31
0.0
 11
-2.5769881889763782
 21
-0.6595078740157481
 31
0.0
 11
-2.5779488188976378
 21
-0.6621259842519686
 31
0.0
 11
-2.5789330708661415
 21
-0.6646771653543308
 31
0.0
 11
-2.579952755905512
 21
-0.6671732283464567
 31
0.0
 11
-2.581
 21
-0.6696062992125984
 31
0.0
 11
-2.5820826771653542
 21
-0.671984251968504
 31
0.0
 11
-2.583188976377953
 21
-0.6742913385826772
 31
0.0
 11
-2.5843307086614171
 21
-0.6765433070866141
 31
0.0
 11
-2.5855000000000001
 21
-0.6787322834645669
 31
0.0
 11
-2.5867086614173229
 21
-0.6808661417322834
 31
0.0
 11
-2.5879409448818897
 21
-0.6829291338582677
 31
0.0
 11
-2.5892086614173229
 21
-0.6849370078740158
 31
0.0
 11
-2.5905078740157479
 21
-0.6868818897637795
 31
0.0
 11
-2.5918425196850392
 21
-0.6887677165354331
 31
0.0
 11
-2.5931811023622049
 21
-0.6905866141732283
 31
0.0
 11
-2.5945393700787402
 21
-0.6923661417322835
 31
0.0
 11
-2.5959094488188978
 21
-0.6940905511811024
 31
0.0
 11
-2.597303149606299
 21
-0.6957755905511811
 31
0.0
 11
-2.598704724409449
 21
-0.6974015748031496
 31
0.0
 11
-2.6001299212598425
 21
-0.6989842519685039
 31
0.0
 11
-2.6015629921259844
 21
-0.700511811023622
 31
0.0
 11
-2.6030236220472442
 21
-0.702
 31
0.0
 11
-2.604488188976378
 21
-0.7034251968503937
 31
0.0
 11
-2.6059763779527558
 21
-0.7048070866141732
 31
0.0
 11
-2.6074763779527559
 21
-0.7061338582677166
 31
0.0
 11
-2.609
 21
-0.7074212598425197
 31
0.0
 11
-2.610527559055118
 21
-0.7086496062992126
 31
0.0
 11
-2.6120826771653545
 21
-0.7098307086614173
 31
0.0
 11
-2.6136496062992127
 21
-0.7109606299212599
 31
0.0
 11
-2.615240157480315
 21
-0.7120472440944882
 31
0.0
 11
-2.6168385826771652
 21
-0.7130905511811023
 31
0.0
 11
-2.6184881889763778
 21
-0.7141102362204724
 31
0.0
 11
-2.6201692913385828
 21
-0.7150944881889764
 31
0.0
 11
-2.6219015748031498
 21
-0.7160511811023622
 31
0.0
 11
-2.6236653543307087
 21
-0.7169645669291339
 31
0.0
 11
-2.6254803149606301
 21
-0.7178543307086615
 31
0.0
 11
-2.6273346456692912
 21
-0.7187086614173228
 31
0.0
 11
-2.6292362204724409
 21
-0.7195393700787401
 31
0.0
 11
-2.6311653543307085
 21
-0.7203228346456693
 31
0.0
 11
-2.6331456692913386
 21
-0.7210866141732284
 31
0.0
 11
-2.6351653543307085
 21
-0.7218110236220473
 31
0.0
 11
-2.637228346456693
 21
-0.7225118110236221
 31
0.0
 11
-2.6393228346456694
 21
-0.7231692913385827
 31
0.0
 11
-2.6414685039370078
 21
-0.7238031496062992
 31
0.0
 11
-2.6436535433070865
 21
-0.7243976377952756
 31
0.0
 11
-2.6458818897637797
 21
-0.7249724409448819
 31
0.0
 11
-2.6481535433070866
 21
-0.7255
 31
0.0
 11
-2.6504685039370077
 21
-0.726
 31
0.0
 11
-2.6528228346456695
 21
-0.7264566929133859
 31
0.0
 11
-2.6552283464566928
 21
-0.7268858267716536
 31
0.0
 11
-2.6576614173228346
 21
-0.7272755905511811
 31
0.0
 11
-2.6601417322834644
 21
-0.7276377952755906
 31
0.0
 11
-2.6626614173228345
 21
-0.7279606299212599
 31
0.0
 11
-2.665228346456693
 21
-0.728251968503937
 31
0.0
 11
-2.6678228346456692
 21
-0.728503937007874
 31
0.0
 11
-2.6704645669291338
 21
-0.7287244094488189
 31
0.0
 11
-2.6731456692913387
 21
-0.7289094488188976
 31
0.0
 11
-2.6758740157480316
 21
-0.7290669291338583
 31
0.0
 11
-2.6786299212598426
 21
-0.7291811023622047
 31
0.0
 11
-2.681437007874016
 21
-0.7292716535433071
 31
0.0
 11
-2.6842834645669291
 21
-0.7293228346456693
 31
0.0
  0
LINE
  5
4D
100
AcDbEntity
  8
0
 62
     0
100
AcDbLine
 10
-2.684283
 20
-0.729323
 30
0.0
 11
-2.687177
 21
-0.729343
 31
0.0
  0
LINE
  5
4E
100
AcDbEntity
  8
0
 62
     0
100
AcDbLine
 10
-2.687177
 20
-0.729343
 30
0.0
 11
-2.779941
 21
-0.729343
 31
0.0
  0
LINE
  5
4F
100
AcDbEntity
  8
0
 62
     0
100
AcDbLine
 10
-2.745949
 20
-0.699
 30
0.0
 11
-2.691067
 21
-0.699
 31
0.0
  0
SPLINE
  5
50
100
AcDbEntity
  8
0
 62
     0
100
AcDbSpline
210
0.0
220
0.0
230
1.0
 70
     0
 71
     3
 72
     0
 73
     0
 74
   112
 44
0.0000000001
 11
-2.6910669291338585
 21
-0.699
 31
0.0
 11
-2.6879291338582676
 21
-0.6989763779527559
 31
0.0
 11
-2.6848779527559055
 21
-0.6989212598425197
 31
0.0
 11
-2.6819094488188977
 21
-0.6988307086614173
 31
0.0
 11
-2.6790354330708661
 21
-0.6987047244094489
 31
0.0
 11
-2.676236220472441
 21
-0.6985354330708662
 31
0.0
 11
-2.6735275590551182
 21
-0.6983346456692914
 31
0.0
 11
-2.6709015748031497
 21
-0.6980944881889764
 31
0.0
 11
-2.6683661417322835
 21
-0.6978228346456693
 31
0.0
 11
-2.6659055118110238
 21
-0.6975039370078741
 31
0.0
 11
-2.6635393700787402
 21
-0.6971535433070866
 31
0.0
 11
-2.6612519685039371
 21
-0.6967677165354331
 31
0.0
 11
-2.6590629921259841
 21
-0.6963464566929134
 31
0.0
 11
-2.656948818897638
 21
-0.6958818897637795
 31
0.0
 11
-2.6549291338582677
 21
-0.6953818897637796
 31
0.0
 11
-2.6529921259842522
 21
-0.6948425196850394
 31
0.0
 11
-2.6511496062992128
 21
-0.6942716535433071
 31
0.0
 11
-2.6493582677165355
 21
-0.6936574803149607
 31
0.0
 11
-2.6476220472440946
 21
-0.6930196850393701
 31
0.0
 11
-2.6459291338582678
 21
-0.6923464566929134
 31
0.0
 11
-2.644287401574803
 21
-0.6916496062992126
 31
0.0
 11
-2.6426811023622045
 21
-0.6909173228346457
 31
0.0
 11
-2.6411299212598425
 21
-0.6901614173228347
 31
0.0
 11
-2.6396181102362206
 21
-0.6893740157480315
 31
0.0
 11
-2.6381653543307086
 21
-0.6885629921259843
 31
0.0
 11
-2.636744094488189
 21
-0.6877086614173228
 31
0.0
 11
-2.6353740157480314
 21
-0.6868307086614174
 31
0.0
 11
-2.634047244094488
 21
-0.6859212598425197
 31
0.0
 11
-2.632771653543307
 21
-0.6849881889763779
 31
0.0
 11
-2.6315314960629923
 21
-0.6840118110236221
 31
0.0
 11
-2.6303464566929136
 21
-0.6830157480314961
 31
0.0
 11
-2.6292007874015746
 21
-0.681984251968504
 31
0.0
 11
-2.6281102362204725
 21
-0.6809291338582677
 31
0.0
 11
-2.6266102362204724
 21
-0.6793858267716535
 31
0.0
 11
-2.6251574803149604
 21
-0.6777795275590551
 31
0.0
 11
-2.6237440944881891
 21
-0.6761102362204724
 31
0.0
 11
-2.6223818897637794
 21
-0.6743740157480315
 31
0.0
 11
-2.621051181102362
 21
-0.6725669291338583
 31
0.0
 11
-2.6197716535433071
 21
-0.6706968503937008
 31
0.0
 11
-2.618527559055118
 21
-0.668759842519685
 31
0.0
 11
-2.6173346456692914
 21
-0.6667637795275591
 31
0.0
 11
-2.6161692913385828
 21
-0.6646929133858268
 31
0.0
 11
-2.6150590551181101
 21
-0.6625590551181102
 31
0.0
 11
-2.6139842519685041
 21
-0.6603622047244094
 31
0.0
 11
-2.6129566929133858
 21
-0.6581062992125984
 31
0.0
 11
-2.6119645669291338
 21
-0.6557795275590551
 31
0.0
 11
-2.6110196850393699
 21
-0.6533937007874016
 31
0.0
 11
-2.6101102362204722
 21
-0.6509409448818898
 31
0.0
 11
-2.609255905511811
 21
-0.6484291338582677
 31
0.0
 11
-2.6084370078740156
 21
-0.6458307086614173
 31
0.0
 11
-2.6076732283464565
 21
-0.6431732283464567
 31
0.0
 11
-2.60696062992126
 21
-0.6404488188976378
 31
0.0
 11
-2.6063031496062994
 21
-0.6376614173228347
 31
0.0
 11
-2.6056889763779529
 21
-0.6348031496062992
 31
0.0
 11
-2.6051338582677164
 21
-0.6318779527559055
 31
0.0
 11
-2.6046338582677167
 21
-0.6288858267716535
 31
0.0
 11
-2.6041889763779529
 21
-0.6258267716535433
 31
0.0
 11
-2.6037874015748033
 21
-0.6226968503937008
 31
0.0
 11
-2.603444881889764
 21
-0.6195000000000001
 31
0.0
 11
-2.6031535433070867
 21
-0.6162322834645669
 31
0.0
 11
-2.6029173228346458
 21
-0.6129015748031496
 31
0.0
 11
-2.602728346456693
 21
-0.6095
 31
0.0
 11
-2.6025984251968506
 21
-0.6060275590551181
 31
0.0
 11
-2.6025196850393701
 21
-0.602484251968504
 31
0.0
 11
-2.6024960629921261
 21
-0.5988779527559055
 31
0.0
 11
-2.6025433070866142
 21
-0.5939055118110236
 31
0.0
 11
-2.6027007874015746
 21
-0.5890866141732284
 31
0.0
 11
-2.6029566929133856
 21
-0.5844094488188977
 31
0.0
 11
-2.6033228346456694
 21
-0.5798858267716536
 31
0.0
 11
-2.6037834645669293
 21
-0.5755039370078741
 31
0.0
 11
-2.6043543307086616
 21
-0.5712677165354331
 31
0.0
 11
-2.605027559055118
 21
-0.5671811023622048
 31
0.0
 11
-2.6058070866141732
 21
-0.563240157480315
 31
0.0
 11
-2.6066811023622045
 21
-0.5594370078740157
 31
0.0
 11
-2.6076653543307087
 21
-0.5557834645669292
 31
0.0
 11
-2.6087480314960629
 21
-0.5522755905511811
 31
0.0
 11
-2.6099370078740156
 21
-0.5489173228346457
 31
0.0
 11
-2.6112244094488188
 21
-0.5457007874015748
 31
0.0
 11
-2.6126220472440944
 21
-0.5426338582677165
 31
0.0
 11
-2.6141181102362205
 21
-0.5397125984251968
 31
0.0
 11
-2.6157204724409451
 21
-0.5369370078740158
 31
0.0
 11
-2.6173976377952757
 21
-0.5342716535433071
 31
0.0
 11
-2.6191259842519683
 21
-0.5317283464566929
 31
0.0
 11
-2.6208897637795276
 21
-0.5292952755905512
 31
0.0
 11
-2.622708661417323
 21
-0.5269803149606299
 31
0.0
 11
-2.6245629921259841
 21
-0.5247716535433071
 31
0.0
 11
-2.6264645669291338
 21
-0.5226811023622048
 31
0.0
 11
-2.6284055118110237
 21
-0.5206968503937008
 31
0.0
 11
-2.6304015748031495
 21
-0.5188307086614173
 31
0.0
 11
-2.6324291338582677
 21
-0.5170708661417323
 31
0.0
 11
-2.6345078740157479
 21
-0.5154291338582677
 31
0.0
 11
-2.6366259842519684
 21
-0.5138937007874016
 31
0.0
 11
-2.6387992125984252
 21
-0.5124763779527559
 31
0.0
 11
-2.6410078740157479
 21
-0.5111653543307086
 31
0.0
 11
-2.643267716535433
 21
-0.5099685039370079
 31
0.0
 11
-2.6455669291338584
 21
-0.5088818897637796
 31
0.0
 11
-2.6479173228346458
 21
-0.5079133858267717
 31
0.0
 11
-2.6496811023622047
 21
-0.5072637795275591
 31
0.0
 11
-2.6515866141732283
 21
-0.5066692913385826
 31
0.0
 11
-2.6536181102362204
 21
-0.5061062992125984
 31
0.0
 11
-2.6557874015748033
 21
-0.5055944881889763
 31
0.0
 11
-2.6580826771653543
 21
-0.5051141732283465
 31
0.0
 11
-2.6605118110236221
 21
-0.5046850393700787
 31
0.0
 11
-2.6630669291338585
 21
-0.5042952755905512
 31
0.0
 11
-2.6657559055118112
 21
-0.5039527559055118
 31
0.0
 11
-2.6685708661417324
 21
-0.5036377952755906
 31
0.0
 11
-2.6715157480314962
 21
-0.5033740157480315
 31
0.0
 11
-2.6745905511811023
 21
-0.5031496062992126
 31
0.0
 11
-2.6777992125984253
 21
-0.5029685039370079
 31
0.0
 11
-2.6811259842519686
 21
-0.5028188976377953
 31
0.0
 11
-2.6845905511811026
 21
-0.5027204724409449
 31
0.0
 11
-2.6881811023622046
 21
-0.5026614173228347
 31
0.0
  0
LINE
  5
51
100
AcDbEntity
  8
0
 62
     0
100
AcDbLine
 10
-2.688181
 20
-0.502661
 30
0.0
 11
-2.691906
 21
-0.502646
 31
0.0
  0
LINE
  5
52
100
AcDbEntity
  8
0
 62
     0
100
AcDbLine
 10
-2.691906
 20
-0.502646
 30
0.0
 11
-2.745949
 21
-0.502646
 31
0.0
  0
LINE
  5
53
100
AcDbEntity
  8
0
 62
     0
100
AcDbLine
 10
-2.745949
 20
-0.502646
 30
0.0
 11
-2.745949
 21
-0.699
 31
0.0
  0
LINE
  5
54
100
AcDbEntity
  8
0
 62
     0
100
AcDbLine
 10
-2.420142
 20
-0.729343
 30
0.0
 11
-2.420142
 21
-0.472303
 31
0.0
  0
LINE
  5
55
100
AcDbEntity
  8
0
 62
     0
100
AcDbLine
 10
-2.420142
 20
-0.472303
 30
0.0
 11
-2.234315
 21
-0.472303
 31
0.0
  0
LINE
  5
56
100
AcDbEntity
  8
0
 62
     0
100
AcDbLine
 10
-2.234315
 20
-0.472303
 30
0.0
 11
-2.234315
 21
-0.502646
 31
0.0
  0
LINE
  5
57
100
AcDbEntity
  8
0
 62
     0
100
AcDbLine
 10
-2.234315
 20
-0.502646
 30
0.0
 11
-2.38615
 21
-0.502646
 31
0.0
  0
LINE
  5
58
100
AcDbEntity
  8
0
 62
     0
100
AcDbLine
 10
-2.38615
 20
-0.502646
 30
0.0
 11
-2.38615
 21
-0.581343
 31
0.0
  0
LINE
  5
59
100
AcDbEntity
  8
0
 62
     0
100
AcDbLine
 10
-2.38615
 20
-0.581343
 30
0.0
 11
-2.243949
 21
-0.581343
 31
0.0
  0
LINE
  5
5A
100
AcDbEntity
  8
0
 62
     0
100
AcDbLine
 10
-2.243949
 20
-0.581343
 30
0.0
 11
-2.243949
 21
-0.611508
 31
0.0
  0
LINE
  5
5B
100
AcDbEntity
  8
0
 62
     0
100
AcDbLine
 10
-2.243949
 20
-0.611508
 30
0.0
 11
-2.38615
 21
-0.611508
 31
0.0
  0
LINE
  5
5C
100
AcDbEntity
  8
0
 62
     0
100
AcDbLine
 10
-2.38615
 20
-0.611508
 30
0.0
 11
-2.38615
 21
-0.699
 31
0.0
  0
LINE
  5
5D
100
AcDbEntity
  8
0
 62
     0
100
AcDbLine
 10
-2.38615
 20
-0.699
 30
0.0
 11
-2.228331
 21
-0.699
 31
0.0
  0
LINE
  5
5E
100
AcDbEntity
  8
0
 62
     0
100
AcDbLine
 10
-2.228331
 20
-0.699
 30
0.0
 11
-2.228331
 21
-0.729343
 31
0.0
  0
LINE
  5
5F
100
AcDbEntity
  8
0
 62
     0
100
AcDbLine
 10
-2.228331
 20
-0.729343
 30
0.0
 11
-2.420142
 21
-0.729343
 31
0.0
  0
SPLINE
  5
60
100
AcDbEntity
  8
0
 62
     0
100
AcDbSpline
210
0.0
220
0.0
230
1.0
 70
     0
 71
     3
 72
     0
 73
     0
 74
   176
 44
0.0000000001
 11
-2.0919370078740158
 21
-0.6041456692913386
 31
0.0
 11
-2.0917992125984251
 21
-0.596251968503937
 31
0.0
 11
-2.0913976377952754
 21
-0.5885748031496063
 31
0.0
 11
-2.0907244094488191
 21
-0.5811181102362205
 31
0.0
 11
-2.089791338582677
 21
-0.5738818897637795
 31
0.0
 11
-2.0885787401574802
 21
-0.5668543307086614
 31
0.0
 11
-2.0871062992125986
 21
-0.5600511811023622
 31
0.0
 11
-2.0853622047244094
 21
-0.5534645669291338
 31
0.0
 11
-2.0833543307086613
 21
-0.5470984251968504
 31
0.0
 11
-2.0810669291338582
 21
-0.5409409448818898
 31
0.0
 11
-2.0785196850393701
 21
-0.535003937007874
 31
0.0
 11
-2.0757007874015749
 21
-0.5292874015748031
 31
0.0
 11
-2.0726181102362204
 21
-0.5237913385826771
 31
0.0
 11
-2.0692559055118109
 21
-0.518503937007874
 31
0.0
 11
-2.0656338582677165
 21
-0.5134370078740157
 31
0.0
 11
-2.0617401574803149
 21
-0.5085905511811024
 31
0.0
 11
-2.0575826771653545
 21
-0.5039645669291338
 31
0.0
 11
-2.053200787401575
 21
-0.4995748031496063
 31
0.0
 11
-2.0486692913385829
 21
-0.4954763779527559
 31
0.0
 11
-2.0439803149606299
 21
-0.4916574803149607
 31
0.0
 11
-2.0391417322834644
 21
-0.4881259842519685
 31
0.0
 11
-2.0341377952755906
 21
-0.4848661417322835
 31
0.0
 11
-2.0289842519685037
 21
-0.4819015748031496
 31
0.0
 11
-2.0236732283464569
 21
-0.4792086614173228
 31
0.0
 11
-2.0182086614173227
 21
-0.4768110236220473
 31
0.0
 11
-2.0125787401574802
 21
-0.4746850393700787
 31
0.0
 11
-2.0067992125984251
 21
-0.4728425196850394
 31
0.0
 11
-2.0008582677165356
 21
-0.4712834645669292
 31
0.0
 11
-1.9947677165354332
 21
-0.470015748031496
 31
0.0
 11
-1.9885157480314961
 21
-0.4690236220472441
 31
0.0
 11
-1.9821102362204723
 21
-0.4683149606299213
 31
0.0
 11
-1.9755472440944881
 21
-0.4678897637795276
 31
0.0
 11
-1.9688307086614174
 21
-0.467755905511811
 31
0.0
 11
-1.9644094488188977
 21
-0.4678188976377953
 31
0.0
 11
-1.9600433070866141
 21
-0.4680196850393701
 31
0.0
 11
-1.955732283464567
 21
-0.4683503937007874
 31
0.0
 11
-1.9514803149606299
 21
-0.4688188976377953
 31
0.0
 11
-1.9472755905511812
 21
-0.4694133858267717
 31
0.0
 11
-1.9431299212598425
 21
-0.4701456692913386
 31
0.0
 11
-1.9390354330708661
 21
-0.4710118110236221
 31
0.0
 11
-1.9350000000000001
 21
-0.4720118110236221
 31
0.0
 11
-1.9310118110236221
 21
-0.4731377952755906
 31
0.0
 11
-1.9270826771653544
 21
-0.4743976377952756
 31
0.0
 11
-1.9232047244094488
 21
-0.4757874015748032
 31
0.0
 11
-1.9193897637795276
 21
-0.4773188976377953
 31
0.0
 11
-1.9156220472440946
 21
-0.4789763779527559
 31
0.0
 11
-1.9119173228346458
 21
-0.4807677165354331
 31
0.0
 11
-1.908263779527559
 21
-0.4826889763779528
 31
0.0
 11
-1.9046732283464567
 21
-0.484751968503937
 31
0.0
 11
-1.9011496062992126
 21
-0.4869330708661417
 31
0.0
 11
-1.897740157480315
 21
-0.4892204724409449
 31
0.0
 11
-1.8944370078740158
 21
-0.4916102362204725
 31
0.0
 11
-1.891240157480315
 21
-0.4941062992125984
 31
0.0
 11
-1.8881417322834646
 21
-0.4967007874015748
 31
0.0
 11
-1.8851574803149607
 21
-0.4994094488188977
 31
0.0
 11
-1.8822716535433071
 21
-0.5022165354330709
 31
0.0
 11
-1.8794999999999999
 21
-0.5051338582677165
 31
0.0
 11
-1.8768228346456692
 21
-0.5081456692913385
 31
0.0
 11
-1.8742559055118111
 21
-0.5112677165354331
 31
0.0
 11
-1.8717952755905511
 21
-0.514496062992126
 31
0.0
 11
-1.8694488188976377
 21
-0.5178307086614173
 31
0.0
 11
-1.8672007874015748
 21
-0.5212637795275591
 31
0.0
 11
-1.8650629921259843
 21
-0.5248031496062993
 31
0.0
 11
-1.8630275590551182
 21
-0.5284488188976378
 31
0.0
 11
-1.8611062992125984
 21
-0.5322086614173228
 31
0.0
 11
-1.8592874015748031
 21
-0.5360275590551181
 31
0.0
 11
-1.8575866141732285
 21
-0.5399212598425197
 31
0.0
 11
-1.856003937007874
 21
-0.5438740157480315
 31
0.0
 11
-1.8545472440944881
 21
-0.5479015748031496
 31
0.0
 11
-1.8532007874015748
 21
-0.5519803149606299
 31
0.0
 11
-1.8519724409448819
 21
-0.5561338582677166
 31
0.0
 11
-1.8508622047244094
 21
-0.5603503937007874
 31
0.0
 11
-1.8498740157480316
 21
-0.5646338582677165
 31
0.0
 11
-1.848988188976378
 21
-0.5689724409448819
 31
0.0
 11
-1.848232283464567
 21
-0.5733818897637796
 31
0.0
 11
-1.8475905511811024
 21
-0.5778503937007874
 31
0.0
 11
-1.8470708661417323
 21
-0.5823897637795276
 31
0.0
 11
-1.8466574803149607
 21
-0.58698031496063
 31
0.0
 11
-1.8463700787401576
 21
-0.5916417322834646
 31
0.0
 11
-1.8461929133858268
 21
-0.5963622047244095
 31
0.0
 11
-1.8461417322834646
 21
-0.6011535433070866
 31
0.0
 11
-1.8462007874015749
 21
-0.6060078740157481
 31
0.0
 11
-1.8463818897637796
 21
-0.6108031496062992
 31
0.0
 11
-1.8466850393700787
 21
-0.6155314960629922
 31
0.0
 11
-1.8471141732283465
 21
-0.6202007874015748
 31
0.0
 11
-1.8476614173228347
 21
-0.6247992125984252
 31
0.0
 11
-1.8483346456692913
 21
-0.6293346456692913
 31
0.0
 11
-1.8491338582677166
 21
-0.6338070866141732
 31
0.0
 11
-1.8500590551181102
 21
-0.6382165354330709
 31
0.0
 11
-1.8510984251968503
 21
-0.6425511811023622
 31
0.0
 11
-1.8522677165354331
 21
-0.6468267716535433
 31
0.0
 11
-1.8535590551181103
 21
-0.6510393700787401
 31
0.0
 11
-1.8549763779527559
 21
-0.6551889763779527
 31
0.0
 11
-1.8565118110236221
 21
-0.6592637795275591
 31
0.0
 11
-1.8581771653543306
 21
-0.6632795275590552
 31
0.0
 11
-1.859968503937008
 21
-0.6672283464566929
 31
0.0
 11
-1.8618858267716536
 21
-0.6711141732283464
 31
0.0
 11
-1.8639055118110237
 21
-0.6749055118110237
 31
0.0
 11
-1.8660354330708662
 21
-0.6785905511811023
 31
0.0
 11
-1.868263779527559
 21
-0.6821574803149606
 31
0.0
 11
-1.8705984251968504
 21
-0.6856062992125984
 31
0.0
 11
-1.8730314960629921
 21
-0.6889370078740158
 31
0.0
 11
-1.8755708661417323
 21
-0.6921496062992126
 31
0.0
 11
-1.8782125984251969
 21
-0.695244094488189
 31
0.0
 11
-1.8809566929133859
 21
-0.698228346456693
 31
0.0
 11
-1.8837992125984251
 21
-0.7010866141732284
 31
0.0
 11
-1.886748031496063
 21
-0.7038307086614173
 31
0.0
 11
-1.8897952755905512
 21
-0.7064527559055118
 31
0.0
 11
-1.8929527559055117
 21
-0.7089685039370078
 31
0.0
 11
-1.8962047244094489
 21
-0.7113622047244095
 31
0.0
 11
-1.8995629921259842
 21
-0.7136417322834646
 31
0.0
 11
-1.9030236220472441
 21
-0.7158031496062992
 31
0.0
 11
-1.9065905511811023
 21
-0.7178503937007874
 31
0.0
 11
-1.910224409448819
 21
-0.719767716535433
 31
0.0
 11
-1.9139015748031496
 21
-0.7215669291338582
 31
0.0
 11
-1.9176062992125984
 21
-0.723236220472441
 31
0.0
 11
-1.9213543307086614
 21
-0.7247913385826772
 31
0.0
 11
-1.9251299212598425
 21
-0.7262125984251968
 31
0.0
 11
-1.9289409448818897
 21
-0.72751968503937
 31
0.0
 11
-1.9327874015748032
 21
-0.7286929133858268
 31
0.0
 11
-1.9366771653543307
 21
-0.729751968503937
 31
0.0
 11
-1.9405905511811024
 21
-0.7306732283464567
 31
0.0
 11
-1.9445433070866143
 21
-0.7314803149606299
 31
0.0
 11
-1.9485275590551181
 21
-0.7321574803149606
 31
0.0
 11
-1.9525511811023621
 21
-0.7327204724409449
 31
0.0
 11
-1.9566062992125983
 21
-0.7331496062992126
 31
0.0
 11
-1.9607047244094489
 21
-0.7334645669291339
 31
0.0
 11
-1.9648346456692913
 21
-0.7336456692913386
 31
0.0
 11
-1.9690078740157479
 21
-0.7337125984251969
 31
0.0
 11
-1.973515748031496
 21
-0.7336417322834645
 31
0.0
 11
-1.9779685039370078
 21
-0.7334330708661417
 31
0.0
 11
-1.9823582677165354
 21
-0.7330905511811023
 31
0.0
 11
-1.9866889763779527
 21
-0.7326181102362205
 31
0.0
 11
-1.9909527559055118
 21
-0.732
 31
0.0
 11
-1.9951614173228347
 21
-0.731248031496063
 31
0.0
 11
-1.9993031496062992
 21
-0.7303622047244095
 31
0.0
 11
-2.0033937007874014
 21
-0.7293385826771653
 31
0.0
 11
-2.0074133858267715
 21
-0.7281692913385827
 31
0.0
 11
-2.0113740157480313
 21
-0.7268700787401575
 31
0.0
 11
-2.0152755905511812
 21
-0.7254291338582677
 31
0.0
 11
-2.0191220472440943
 21
-0.7238582677165354
 31
0.0
 11
-2.0228976377952756
 21
-0.7221417322834646
 31
0.0
 11
-2.0266220472440946
 21
-0.7202913385826771
 31
0.0
 11
-2.0302795275590553
 21
-0.7183031496062993
 31
0.0
 11
-2.0338858267716535
 21
-0.7161771653543307
 31
0.0
 11
-2.0374055118110235
 21
-0.7139330708661418
 31
0.0
 11
-2.0408228346456694
 21
-0.7115944881889764
 31
0.0
 11
-2.0441259842519686
 21
-0.7091535433070866
 31
0.0
 11
-2.0473267716535433
 21
-0.7066141732283464
 31
0.0
 11
-2.0504094488188978
 21
-0.7039685039370078
 31
0.0
 11
-2.0533897637795278
 21
-0.701228346456693
 31
0.0
 11
-2.056255905511811
 21
-0.6983858267716535
 31
0.0
 11
-2.0590236220472442
 21
-0.6954448818897638
 31
0.0
 11
-2.0616732283464567
 21
-0.6923976377952756
 31
0.0
 11
-2.0642165354330708
 21
-0.689255905511811
 31
0.0
 11
-2.0666496062992126
 21
-0.686007874015748
 31
0.0
 11
-2.0689803149606298
 21
-0.6826692913385827
 31
0.0
 11
-2.0711968503937008
 21
-0.6792204724409449
 31
0.0
 11
-2.0733070866141734
 21
-0.6756811023622047
 31
0.0
 11
-2.0753110236220471
 21
-0.6720354330708661
 31
0.0
 11
-2.0772125984251968
 21
-0.6682992125984252
 31
0.0
 11
-2.0789921259842519
 21
-0.6644960629921259
 31
0.0
 11
-2.0806574803149607
 21
-0.6606692913385827
 31
0.0
 11
-2.0822086614173227
 21
-0.6568110236220472
 31
0.0
 11
-2.0836496062992125
 21
-0.6529330708661417
 31
0.0
 11
-2.0849685039370081
 21
-0.6490157480314961
 31
0.0
 11
-2.0861771653543308
 21
-0.6450787401574804
 31
0.0
 11
-2.0872716535433069
 21
-0.6411102362204725
 31
0.0
 11
-2.0882519685039371
 21
-0.6371181102362205
 31
0.0
 11
-2.0891141732283462
 21
-0.6330866141732283
 31
0.0
 11
-2.0898622047244095
 21
-0.6290354330708662
 31
0.0
 11
-2.0904960629921261
 21
-0.6249488188976378
 31
0.0
 11
-2.0910157480314959
 21
-0.6208464566929134
 31
0.0
 11
-2.0914173228346455
 21
-0.6167047244094488
 31
0.0
 11
-2.0917047244094489
 21
-0.6125472440944882
 31
0.0
 11
-2.0918779527559055
 21
-0.6083543307086614
 31
0.0
  0
SPLINE
  5
61
100
AcDbEntity
  8
0
 62
     0
100
AcDbSpline
210
0.0
220
0.0
230
1.0
 70
     0
 71
     3
 72
     0
 73
     0
 74
   145
 44
0.0000000001
 11
-2.0568661417322835
 21
-0.6046850393700788
 31
0.0
 11
-2.0567637795275591
 21
-0.6104133858267716
 31
0.0
 11
-2.0564685039370079
 21
-0.615992125984252
 31
0.0
 11
-2.055976377952756
 21
-0.6214173228346457
 31
0.0
 11
-2.0552992125984253
 21
-0.6266889763779527
 31
0.0
 11
-2.0544173228346456
 21
-0.6317992125984252
 31
0.0
 11
-2.0533503937007875
 21
-0.6367559055118111
 31
0.0
 11
-2.0520787401574805
 21
-0.6415590551181103
 31
0.0
 11
-2.0506220472440946
 21
-0.6462165354330709
 31
0.0
 11
-2.0489606299212597
 21
-0.6507086614173229
 31
0.0
 11
-2.0471102362204725
 21
-0.6550511811023622
 31
0.0
 11
-2.0450590551181103
 21
-0.6592362204724409
 31
0.0
 11
-2.0428228346456692
 21
-0.6632716535433071
 31
0.0
 11
-2.0403818897637795
 21
-0.6671496062992126
 31
0.0
 11
-2.0377559055118111
 21
-0.6708779527559056
 31
0.0
 11
-2.0349251968503936
 21
-0.6744488188976378
 31
0.0
 11
-2.0319094488188978
 21
-0.6778740157480315
 31
0.0
 11
-2.0287204724409449
 21
-0.6811102362204724
 31
0.0
 11
-2.0254448818897637
 21
-0.6841377952755906
 31
0.0
 11
-2.0220669291338584
 21
-0.6869606299212598
 31
0.0
 11
-2.0185944881889766
 21
-0.6895748031496063
 31
0.0
 11
-2.0150157480314959
 21
-0.6919724409448819
 31
0.0
 11
-2.0113464566929133
 21
-0.6941692913385826
 31
0.0
 11
-2.0075708661417324
 21
-0.6961535433070866
 31
0.0
 11
-2.0037086614173227
 21
-0.6979330708661418
 31
0.0
 11
-1.9997362204724409
 21
-0.699496062992126
 31
0.0
 11
-1.9956732283464567
 21
-0.7008543307086614
 31
0.0
 11
-1.991503937007874
 21
-0.702003937007874
 31
0.0
 11
-1.9872401574803149
 21
-0.7029488188976378
 31
0.0
 11
-1.9828700787401574
 21
-0.7036811023622047
 31
0.0
 11
-1.9784133858267716
 21
-0.7042047244094488
 31
0.0
 11
-1.9738464566929135
 21
-0.7045196850393701
 31
0.0
 11
-1.9691889763779526
 21
-0.7046259842519685
 31
0.0
 11
-1.9644330708661417
 21
-0.7045196850393701
 31
0.0
 11
-1.9597913385826771
 21
-0.7042007874015748
 31
0.0
 11
-1.9552519685039369
 21
-0.7036732283464567
 31
0.0
 11
-1.9508267716535432
 21
-0.7029409448818897
 31
0.0
 11
-1.9464999999999999
 21
-0.701992125984252
 31
0.0
 11
-1.9422874015748031
 21
-0.7008346456692913
 31
0.0
 11
-1.9381732283464568
 21
-0.6994645669291338
 31
0.0
 11
-1.9341732283464568
 21
-0.6978858267716536
 31
0.0
 11
-1.9302716535433071
 21
-0.6960905511811024
 31
0.0
 11
-1.9264842519685039
 21
-0.6940905511811024
 31
0.0
 11
-1.9227992125984252
 21
-0.6918700787401575
 31
0.0
 11
-1.9192283464566928
 21
-0.6894488188976378
 31
0.0
 11
-1.915751968503937
 21
-0.6868110236220473
 31
0.0
 11
-1.9123937007874017
 21
-0.6839645669291339
 31
0.0
 11
-1.9091377952755906
 21
-0.6809055118110237
 31
0.0
 11
-1.9059921259842521
 21
-0.6776338582677165
 31
0.0
 11
-1.902988188976378
 21
-0.6741653543307087
 31
0.0
 11
-1.9001771653543307
 21
-0.6705236220472441
 31
0.0
 11
-1.8975590551181103
 21
-0.6667007874015748
 31
0.0
 11
-1.8951377952755906
 21
-0.6627047244094488
 31
0.0
 11
-1.8929055118110236
 21
-0.6585275590551181
 31
0.0
 11
-1.8908661417322834
 21
-0.6541811023622047
 31
0.0
 11
-1.8890236220472441
 21
-0.6496535433070866
 31
0.0
 11
-1.8873740157480314
 21
-0.6449566929133859
 31
0.0
 11
-1.8859133858267716
 21
-0.6400708661417323
 31
0.0
 11
-1.8846496062992126
 21
-0.6350196850393701
 31
0.0
 11
-1.8835826771653543
 21
-0.6297834645669291
 31
0.0
 11
-1.8827086614173227
 21
-0.6243779527559055
 31
0.0
 11
-1.8820236220472442
 21
-0.6187874015748032
 31
0.0
 11
-1.8815393700787402
 21
-0.6130275590551181
 31
0.0
 11
-1.8812480314960629
 21
-0.6070826771653544
 31
0.0
 11
-1.8811535433070865
 21
-0.6009724409448819
 31
0.0
 11
-1.8811929133858267
 21
-0.5970787401574803
 31
0.0
 11
-1.8813188976377953
 21
-0.5932559055118111
 31
0.0
 11
-1.881523622047244
 21
-0.5894921259842519
 31
0.0
 11
-1.8818228346456694
 21
-0.5857952755905512
 31
0.0
 11
-1.8821968503937008
 21
-0.5821535433070866
 31
0.0
 11
-1.8826614173228347
 21
-0.5785826771653543
 31
0.0
 11
-1.8832007874015748
 21
-0.5750669291338583
 31
0.0
 11
-1.8838307086614172
 21
-0.5716181102362204
 31
0.0
 11
-1.8845354330708661
 21
-0.5682204724409449
 31
0.0
 11
-1.8853267716535433
 21
-0.5648937007874015
 31
0.0
 11
-1.8861968503937008
 21
-0.5616220472440945
 31
0.0
 11
-1.8871574803149607
 21
-0.5584173228346456
 31
0.0
 11
-1.8881929133858268
 21
-0.5552677165354331
 31
0.0
 11
-1.8893149606299213
 21
-0.5521889763779527
 31
0.0
 11
-1.890515748031496
 21
-0.5491692913385827
 31
0.0
 11
-1.8918070866141732
 21
-0.5462125984251969
 31
0.0
 11
-1.8931653543307088
 21
-0.5433228346456693
 31
0.0
 11
-1.8946062992125985
 21
-0.5405157480314961
 31
0.0
 11
-1.8961220472440945
 21
-0.5377913385826771
 31
0.0
 11
-1.897716535433071
 21
-0.5351535433070866
 31
0.0
 11
-1.8993818897637795
 21
-0.5325944881889764
 31
0.0
 11
-1.9011299212598425
 21
-0.5301220472440945
 31
0.0
 11
-1.9029566929133859
 21
-0.5277283464566929
 31
0.0
 11
-1.9048622047244095
 21
-0.5254212598425196
 31
0.0
 11
-1.9068346456692913
 21
-0.5231850393700788
 31
0.0
 11
-1.9088897637795275
 21
-0.5210393700787401
 31
0.0
 11
-1.911015748031496
 21
-0.5189763779527559
 31
0.0
 11
-1.9132244094488189
 21
-0.517
 31
0.0
 11
-1.9155039370078739
 21
-0.5150944881889764
 31
0.0
 11
-1.9178582677165354
 21
-0.5132795275590552
 31
0.0
 11
-1.9202913385826772
 21
-0.5115393700787402
 31
0.0
 11
-1.9228070866141733
 21
-0.5098897637795276
 31
0.0
 11
-1.9253779527559056
 21
-0.5083307086614173
 31
0.0
 11
-1.927996062992126
 21
-0.5068740157480315
 31
0.0
 11
-1.9306456692913385
 21
-0.505515748031496
 31
0.0
 11
-1.9333425196850393
 21
-0.5042637795275591
 31
0.0
 11
-1.9360669291338584
 21
-0.5031062992125984
 31
0.0
 11
-1.9388385826771652
 21
-0.5020472440944882
 31
0.0
 11
-1.9416417322834645
 21
-0.5010905511811024
 31
0.0
 11
-1.944492125984252
 21
-0.5002401574803149
 31
0.0
 11
-1.9473700787401576
 21
-0.49948031496063
 31
0.0
 11
-1.9502952755905512
 21
-0.4988267716535433
 31
0.0
 11
-1.9532519685039369
 21
-0.4982716535433071
 31
0.0
 11
-1.9562559055118109
 21
-0.4978228346456693
 31
0.0
 11
-1.9592913385826771
 21
-0.4974685039370079
 31
0.0
 11
-1.9623700787401575
 21
-0.4972204724409449
 31
0.0
 11
-1.965488188976378
 21
-0.4970669291338583
 31
0.0
 11
-1.9686496062992127
 21
-0.4970196850393701
 31
0.0
 11
-1.9731259842519686
 21
-0.4971141732283465
 31
0.0
 11
-1.977527559055118
 21
-0.4974015748031496
 31
0.0
 11
-1.9818464566929135
 21
-0.4978858267716536
 31
0.0
 11
-1.9860944881889764
 21
-0.4985669291338583
 31
0.0
 11
-1.990255905511811
 21
-0.4994370078740157
 31
0.0
 11
-1.9943385826771654
 21
-0.500503937007874
 31
0.0
 11
-1.9983425196850393
 21
-0.501763779527559
 31
0.0
 11
-2.0022716535433069
 21
-0.5032204724409449
 31
0.0
 11
-2.0061141732283465
 21
-0.5048622047244095
 31
0.0
 11
-2.0098818897637796
 21
-0.5067047244094488
 31
0.0
 11
-2.0135669291338583
 21
-0.508744094488189
 31
0.0
 11
-2.0171811023622048
 21
-0.5109803149606299
 31
0.0
 11
-2.0207047244094487
 21
-0.5134015748031496
 31
0.0
 11
-2.0241614173228348
 21
-0.5160236220472441
 31
0.0
 11
-2.0275314960629922
 21
-0.5188425196850394
 31
0.0
 11
-2.0308346456692914
 21
-0.5218582677165354
 31
0.0
 11
-2.0339842519685041
 21
-0.5250826771653543
 31
0.0
 11
-2.0369330708661417
 21
-0.5285669291338583
 31
0.0
 11
-2.0396771653543309
 21
-0.5323110236220473
 31
0.0
 11
-2.042220472440945
 21
-0.5363267716535433
 31
0.0
 11
-2.0445551181102362
 21
-0.5405905511811023
 31
0.0
 11
-2.0466929133858267
 21
-0.5451259842519685
 31
0.0
 11
-2.0486259842519683
 21
-0.5499094488188976
 31
0.0
 11
-2.0503582677165353
 21
-0.5549645669291339
 31
0.0
 11
-2.0518779527559055
 21
-0.5602677165354331
 31
0.0
 11
-2.053200787401575
 21
-0.5658346456692913
 31
0.0
 11
-2.0543188976377951
 21
-0.5716574803149607
 31
0.0
 11
-2.055236220472441
 21
-0.5777519685039371
 31
0.0
 11
-2.0559448818897637
 21
-0.5840944881889764
 31
0.0
 11
-2.0564566929133856
 21
-0.5906968503937008
 31
0.0
 11
-2.0567598425196851
 21
-0.5975590551181103
 31
0.0
 11
-2.0568661417322835
 21
-0.6046850393700788
 31
0.0
  0
LINE
  5
62
100
AcDbEntity
  8
0
 62
     0
100
AcDbLine
 10
-1.50298
 20
-0.729343
 30
0.0
 11
-1.50298
 21
-0.472303
 31
0.0
  0
LINE
  5
63
100
AcDbEntity
  8
0
 62
     0
100
AcDbLine
 10
-1.50298
 20
-0.472303
 30
0.0
 11
-1.414465
 21
-0.472303
 31
0.0
  0
SPLINE
  5
64
100
AcDbEntity
  8
0
 62
     0
100
AcDbSpline
210
0.0
220
0.0
230
1.0
 70
     0
 71
     3
 72
     0
 73
     0
 74
   144
 44
0.0000000001
 11
-1.4144645669291338
 21
-0.4723031496062992
 31
0.0
 11
-1.4107677165354331
 21
-0.4723149606299212
 31
0.0
 11
-1.4071850393700787
 21
-0.4723582677165354
 31
0.0
 11
-1.4037125984251968
 21
-0.4724291338582677
 31
0.0
 11
-1.4003582677165354
 21
-0.4725354330708662
 31
0.0
 11
-1.3971023622047245
 21
-0.4726653543307087
 31
0.0
 11
-1.3939685039370078
 21
-0.4728228346456693
 31
0.0
 11
-1.3909370078740158
 21
-0.4730118110236221
 31
0.0
 11
-1.3880275590551181
 21
-0.473236220472441
 31
0.0
 11
-1.3852165354330708
 21
-0.4734803149606299
 31
0.0
 11
-1.3825236220472441
 21
-0.473755905511811
 31
0.0
 11
-1.3799370078740159
 21
-0.4740629921259842
 31
0.0
 11
-1.3774685039370078
 21
-0.4743976377952756
 31
0.0
 11
-1.3750984251968503
 21
-0.474755905511811
 31
0.0
 11
-1.3728503937007874
 21
-0.4751456692913386
 31
0.0
 11
-1.3707047244094488
 21
-0.4755669291338583
 31
0.0
 11
-1.3686811023622047
 21
-0.476015748031496
 31
0.0
 11
-1.3659409448818898
 21
-0.4766692913385827
 31
0.0
 11
-1.363255905511811
 21
-0.4773976377952756
 31
0.0
 11
-1.3606220472440944
 21
-0.4781850393700787
 31
0.0
 11
-1.3580393700787401
 21
-0.4790472440944882
 31
0.0
 11
-1.3555039370078741
 21
-0.4799685039370079
 31
0.0
 11
-1.353023622047244
 21
-0.4809606299212598
 31
0.0
 11
-1.3505905511811023
 21
-0.4820118110236221
 31
0.0
 11
-1.3482125984251969
 21
-0.4831338582677165
 31
0.0
 11
-1.3458779527559055
 21
-0.4843110236220473
 31
0.0
 11
-1.3435984251968505
 21
-0.4855590551181103
 31
0.0
 11
-1.3413661417322835
 21
-0.4868700787401575
 31
0.0
 11
-1.3391889763779528
 21
-0.488248031496063
 31
0.0
 11
-1.3370590551181103
 21
-0.4896811023622048
 31
0.0
 11
-1.3349803149606299
 21
-0.4911889763779528
 31
0.0
 11
-1.3329527559055119
 21
-0.492751968503937
 31
0.0
 11
-1.3309803149606299
 21
-0.4943897637795275
 31
0.0
 11
-1.3284803149606299
 21
-0.4965748031496063
 31
0.0
 11
-1.3260629921259843
 21
-0.4988385826771654
 31
0.0
 11
-1.3237204724409448
 21
-0.5011771653543307
 31
0.0
 11
-1.3214606299212599
 21
-0.5035866141732284
 31
0.0
 11
-1.319275590551181
 21
-0.5060669291338583
 31
0.0
 11
-1.3171771653543307
 21
-0.5086259842519685
 31
0.0
 11
-1.3151535433070867
 21
-0.511259842519685
 31
0.0
 11
-1.3132165354330709
 21
-0.5139685039370079
 31
0.0
 11
-1.3113503937007873
 21
-0.5167440944881889
 31
0.0
 11
-1.3095708661417322
 21
-0.5196023622047244
 31
0.0
 11
-1.3078661417322834
 21
-0.5225314960629921
 31
0.0
 11
-1.3062480314960629
 21
-0.5255393700787402
 31
0.0
 11
-1.3047047244094487
 21
-0.5286181102362205
 31
0.0
 11
-1.3032480314960631
 21
-0.5317716535433071
 31
0.0
 11
-1.3018700787401576
 21
-0.535003937007874
 31
0.0
 11
-1.3005787401574802
 21
-0.5383149606299212
 31
0.0
 11
-1.2993464566929134
 21
-0.5416850393700787
 31
0.0
 11
-1.2981968503937007
 21
-0.5451181102362205
 31
0.0
 11
-1.2971259842519685
 21
-0.5486062992125984
 31
0.0
 11
-1.2961377952755906
 21
-0.5521574803149606
 31
0.0
 11
-1.295224409448819
 21
-0.5557637795275591
 31
0.0
 11
-1.2943976377952755
 21
-0.5594330708661417
 31
0.0
 11
-1.2936496062992127
 21
-0.5631614173228347
 31
0.0
 11
-1.2929803149606298
 21
-0.5669566929133858
 31
0.0
 11
-1.2923858267716535
 21
-0.5707992125984251
 31
0.0
 11
-1.2918740157480315
 21
-0.5747086614173228
 31
0.0
 11
-1.2914409448818898
 21
-0.5786732283464567
 31
0.0
 11
-1.2910905511811024
 21
-0.5827047244094489
 31
0.0
 11
-1.2908149606299213
 21
-0.5867874015748031
 31
0.0
 11
-1.2906181102362204
 21
-0.5909370078740157
 31
0.0
 11
-1.2905
 21
-0.5951456692913386
 31
0.0
 11
-1.2904645669291339
 21
-0.5994173228346457
 31
0.0
 11
-1.290488188976378
 21
-0.6030433070866141
 31
0.0
 11
-1.2905708661417323
 21
-0.6066220472440945
 31
0.0
 11
-1.2907007874015748
 21
-0.6101456692913386
 31
0.0
 11
-1.2908897637795276
 21
-0.6136259842519685
 31
0.0
 11
-1.2911259842519685
 21
-0.6170472440944882
 31
0.0
 11
-1.2914212598425197
 21
-0.6204251968503937
 31
0.0
 11
-1.2917677165354331
 21
-0.623744094488189
 31
0.0
 11
-1.2921732283464566
 21
-0.6270196850393701
 31
0.0
 11
-1.2926259842519685
 21
-0.6302322834645669
 31
0.0
 11
-1.2931377952755905
 21
-0.6333976377952756
 31
0.0
 11
-1.2937007874015749
 21
-0.636507874015748
 31
0.0
 11
-1.2943228346456692
 21
-0.6395748031496064
 31
0.0
 11
-1.2949921259842521
 21
-0.6425787401574803
 31
0.0
 11
-1.2957244094488189
 21
-0.6455393700787402
 31
0.0
 11
-1.2965039370078739
 21
-0.6484448818897638
 31
0.0
 11
-1.2973464566929134
 21
-0.6513031496062992
 31
0.0
 11
-1.2982086614173229
 21
-0.6540944881889764
 31
0.0
 11
-1.2991062992125983
 21
-0.6568307086614174
 31
0.0
 11
-1.300027559055118
 21
-0.6595078740157481
 31
0.0
 11
-1.3009881889763779
 21
-0.6621259842519686
 31
0.0
 11
-1.3019724409448818
 21
-0.6646771653543308
 31
0.0
 11
-1.3029921259842521
 21
-0.6671732283464567
 31
0.0
 11
-1.3040393700787403
 21
-0.6696062992125984
 31
0.0
 11
-1.3051220472440945
 21
-0.671984251968504
 31
0.0
 11
-1.3062283464566928
 21
-0.6742913385826772
 31
0.0
 11
-1.3073700787401574
 21
-0.6765433070866141
 31
0.0
 11
-1.3085393700787402
 21
-0.6787322834645669
 31
0.0
 11
-1.309748031496063
 21
-0.6808661417322834
 31
0.0
 11
-1.3109803149606298
 21
-0.6829291338582677
 31
0.0
 11
-1.3122480314960629
 21
-0.6849370078740158
 31
0.0
 11
-1.3135472440944882
 21
-0.6868818897637795
 31
0.0
 11
-1.3148818897637795
 21
-0.6887677165354331
 31
0.0
 11
-1.316220472440945
 21
-0.6905866141732283
 31
0.0
 11
-1.3175787401574803
 21
-0.6923661417322835
 31
0.0
 11
-1.3189488188976377
 21
-0.6940905511811024
 31
0.0
 11
-1.3203425196850394
 21
-0.6957755905511811
 31
0.0
 11
-1.3217440944881891
 21
-0.6974015748031496
 31
0.0
 11
-1.3231692913385826
 21
-0.6989842519685039
 31
0.0
 11
-1.3246023622047245
 21
-0.700511811023622
 31
0.0
 11
-1.3260629921259843
 21
-0.702
 31
0.0
 11
-1.3275275590551181
 21
-0.7034251968503937
 31
0.0
 11
-1.3290157480314961
 21
-0.7048070866141732
 31
0.0
 11
-1.330515748031496
 21
-0.7061338582677166
 31
0.0
 11
-1.3320393700787401
 21
-0.7074212598425197
 31
0.0
 11
-1.3335669291338583
 21
-0.7086496062992126
 31
0.0
 11
-1.3351220472440946
 21
-0.7098307086614173
 31
0.0
 11
-1.3366889763779528
 21
-0.7109606299212599
 31
0.0
 11
-1.3382795275590551
 21
-0.7120472440944882
 31
0.0
 11
-1.3398779527559055
 21
-0.7130905511811023
 31
0.0
 11
-1.3415275590551181
 21
-0.7141102362204724
 31
0.0
 11
-1.3432086614173229
 21
-0.7150944881889764
 31
0.0
 11
-1.3449409448818899
 21
-0.7160511811023622
 31
0.0
 11
-1.3467047244094488
 21
-0.7169645669291339
 31
0.0
 11
-1.3485196850393701
 21
-0.7178543307086615
 31
0.0
 11
-1.3503740157480315
 21
-0.7187086614173228
 31
0.0
 11
-1.3522755905511812
 21
-0.7195393700787401
 31
0.0
 11
-1.3542047244094488
 21
-0.7203228346456693
 31
0.0
 11
-1.3561850393700787
 21
-0.7210866141732284
 31
0.0
 11
-1.3582047244094488
 21
-0.7218110236220473
 31
0.0
 11
-1.3602677165354331
 21
-0.7225118110236221
 31
0.0
 11
-1.3623622047244095
 21
-0.7231692913385827
 31
0.0
 11
-1.3645078740157481
 21
-0.7238031496062992
 31
0.0
 11
-1.3666929133858268
 21
-0.7243976377952756
 31
0.0
 11
-1.3689212598425198
 21
-0.7249724409448819
 31
0.0
 11
-1.3711929133858267
 21
-0.7255
 31
0.0
 11
-1.373507874015748
 21
-0.726
 31
0.0
 11
-1.3758622047244093
 21
-0.7264566929133859
 31
0.0
 11
-1.3782677165354331
 21
-0.7268858267716536
 31
0.0
 11
-1.3807007874015749
 21
-0.7272755905511811
 31
0.0
 11
-1.3831811023622047
 21
-0.7276377952755906
 31
0.0
 11
-1.3857007874015748
 21
-0.7279606299212599
 31
0.0
 11
-1.3882677165354331
 21
-0.728251968503937
 31
0.0
 11
-1.3908622047244095
 21
-0.728503937007874
 31
0.0
 11
-1.3935039370078741
 21
-0.7287244094488189
 31
0.0
 11
-1.3961850393700788
 21
-0.7289094488188976
 31
0.0
 11
-1.3989133858267717
 21
-0.7290669291338583
 31
0.0
 11
-1.4016692913385826
 21
-0.7291811023622047
 31
0.0
 11
-1.4044763779527558
 21
-0.7292716535433071
 31
0.0
 11
-1.4073228346456692
 21
-0.7293228346456693
 31
0.0
  0
LINE
  5
65
100
AcDbEntity
  8
0
 62
     0
100
AcDbLine
 10
-1.407323
 20
-0.729323
 30
0.0
 11
-1.410217
 21
-0.729343
 31
0.0
  0
LINE
  5
66
100
AcDbEntity
  8
0
 62
     0
100
AcDbLine
 10
-1.410217
 20
-0.729343
 30
0.0
 11
-1.50298
 21
-0.729343
 31
0.0
  0
LINE
  5
67
100
AcDbEntity
  8
0
 62
     0
100
AcDbLine
 10
-1.468988
 20
-0.699
 30
0.0
 11
-1.414106
 21
-0.699
 31
0.0
  0
SPLINE
  5
68
100
AcDbEntity
  8
0
 62
     0
100
AcDbSpline
210
0.0
220
0.0
230
1.0
 70
     0
 71
     3
 72
     0
 73
     0
 74
   112
 44
0.0000000001
 11
-1.4141062992125983
 21
-0.699
 31
0.0
 11
-1.4109685039370079
 21
-0.6989763779527559
 31
0.0
 11
-1.4079173228346458
 21
-0.6989212598425197
 31
0.0
 11
-1.4049488188976378
 21
-0.6988307086614173
 31
0.0
 11
-1.4020748031496062
 21
-0.6987047244094489
 31
0.0
 11
-1.3992755905511811
 21
-0.6985354330708662
 31
0.0
 11
-1.3965669291338583
 21
-0.6983346456692914
 31
0.0
 11
-1.3939409448818898
 21
-0.6980944881889764
 31
0.0
 11
-1.3914055118110236
 21
-0.6978228346456693
 31
0.0
 11
-1.3889448818897638
 21
-0.6975039370078741
 31
0.0
 11
-1.3865787401574803
 21
-0.6971535433070866
 31
0.0
 11
-1.3842913385826772
 21
-0.6967677165354331
 31
0.0
 11
-1.3821023622047244
 21
-0.6963464566929134
 31
0.0
 11
-1.3799881889763779
 21
-0.6958818897637795
 31
0.0
 11
-1.377968503937008
 21
-0.6953818897637796
 31
0.0
 11
-1.376031496062992
 21
-0.6948425196850394
 31
0.0
 11
-1.3741889763779527
 21
-0.6942716535433071
 31
0.0
 11
-1.3723976377952756
 21
-0.6936574803149607
 31
0.0
 11
-1.3706614173228346
 21
-0.6930196850393701
 31
0.0
 11
-1.3689685039370079
 21
-0.6923464566929134
 31
0.0
 11
-1.3673267716535433
 21
-0.6916496062992126
 31
0.0
 11
-1.3657204724409449
 21
-0.6909173228346457
 31
0.0
 11
-1.3641692913385828
 21
-0.6901614173228347
 31
0.0
 11
-1.3626574803149607
 21
-0.6893740157480315
 31
0.0
 11
-1.3612047244094487
 21
-0.6885629921259843
 31
0.0
 11
-1.3597834645669291
 21
-0.6877086614173228
 31
0.0
 11
-1.3584133858267717
 21
-0.6868307086614174
 31
0.0
 11
-1.3570866141732283
 21
-0.6859212598425197
 31
0.0
 11
-1.3558110236220473
 21
-0.6849881889763779
 31
0.0
 11
-1.3545708661417324
 21
-0.6840118110236221
 31
0.0
 11
-1.3533858267716536
 21
-0.6830157480314961
 31
0.0
 11
-1.3522401574803149
 21
-0.681984251968504
 31
0.0
 11
-1.3511496062992125
 21
-0.6809291338582677
 31
0.0
 11
-1.3496496062992125
 21
-0.6793858267716535
 31
0.0
 11
-1.3481968503937007
 21
-0.6777795275590551
 31
0.0
 11
-1.3467834645669292
 21
-0.6761102362204724
 31
0.0
 11
-1.3454212598425197
 21
-0.6743740157480315
 31
0.0
 11
-1.3440905511811023
 21
-0.6725669291338583
 31
0.0
 11
-1.3428110236220472
 21
-0.6706968503937008
 31
0.0
 11
-1.3415669291338583
 21
-0.668759842519685
 31
0.0
 11
-1.3403740157480315
 21
-0.6667637795275591
 31
0.0
 11
-1.3392086614173229
 21
-0.6646929133858268
 31
0.0
 11
-1.3380984251968504
 21
-0.6625590551181102
 31
0.0
 11
-1.337023622047244
 21
-0.6603622047244094
 31
0.0
 11
-1.3359960629921259
 21
-0.6581062992125984
 31
0.0
 11
-1.3350039370078741
 21
-0.6557795275590551
 31
0.0
 11
-1.3340590551181102
 21
-0.6533937007874016
 31
0.0
 11
-1.3331496062992125
 21
-0.6509409448818898
 31
0.0
 11
-1.3322952755905513
 21
-0.6484291338582677
 31
0.0
 11
-1.3314763779527559
 21
-0.6458307086614173
 31
0.0
 11
-1.3307125984251968
 21
-0.6431732283464567
 31
0.0
 11
-1.3300000000000001
 21
-0.6404488188976378
 31
0.0
 11
-1.3293425196850395
 21
-0.6376614173228347
 31
0.0
 11
-1.328728346456693
 21
-0.6348031496062992
 31
0.0
 11
-1.3281732283464567
 21
-0.6318779527559055
 31
0.0
 11
-1.3276732283464567
 21
-0.6288858267716535
 31
0.0
 11
-1.327228346456693
 21
-0.6258267716535433
 31
0.0
 11
-1.3268267716535433
 21
-0.6226968503937008
 31
0.0
 11
-1.3264842519685038
 21
-0.6195000000000001
 31
0.0
 11
-1.3261929133858268
 21
-0.6162322834645669
 31
0.0
 11
-1.3259566929133859
 21
-0.6129015748031496
 31
0.0
 11
-1.3257677165354331
 21
-0.6095
 31
0.0
 11
-1.3256377952755904
 21
-0.6060275590551181
 31
0.0
 11
-1.3255590551181102
 21
-0.602484251968504
 31
0.0
 11
-1.3255354330708662
 21
-0.5988779527559055
 31
0.0
 11
-1.3255826771653543
 21
-0.5939055118110236
 31
0.0
 11
-1.3257401574803149
 21
-0.5890866141732284
 31
0.0
 11
-1.3259960629921259
 21
-0.5844094488188977
 31
0.0
 11
-1.3263622047244095
 21
-0.5798858267716536
 31
0.0
 11
-1.3268228346456692
 21
-0.5755039370078741
 31
0.0
 11
-1.3273937007874015
 21
-0.5712677165354331
 31
0.0
 11
-1.3280669291338583
 21
-0.5671811023622048
 31
0.0
 11
-1.3288464566929135
 21
-0.563240157480315
 31
0.0
 11
-1.3297204724409448
 21
-0.5594370078740157
 31
0.0
 11
-1.3307047244094488
 21
-0.5557834645669292
 31
0.0
 11
-1.3317874015748032
 21
-0.5522755905511811
 31
0.0
 11
-1.3329763779527559
 21
-0.5489173228346457
 31
0.0
 11
-1.3342637795275591
 21
-0.5457007874015748
 31
0.0
 11
-1.3356614173228347
 21
-0.5426338582677165
 31
0.0
 11
-1.3371574803149606
 21
-0.5397125984251968
 31
0.0
 11
-1.3387598425196849
 21
-0.5369370078740158
 31
0.0
 11
-1.3404370078740158
 21
-0.5342716535433071
 31
0.0
 11
-1.3421653543307086
 21
-0.5317283464566929
 31
0.0
 11
-1.3439291338582677
 21
-0.5292952755905512
 31
0.0
 11
-1.345748031496063
 21
-0.5269803149606299
 31
0.0
 11
-1.3476023622047244
 21
-0.5247716535433071
 31
0.0
 11
-1.3495039370078741
 21
-0.5226811023622048
 31
0.0
 11
-1.3514448818897637
 21
-0.5206968503937008
 31
0.0
 11
-1.3534409448818898
 21
-0.5188307086614173
 31
0.0
 11
-1.3554685039370078
 21
-0.5170708661417323
 31
0.0
 11
-1.3575472440944882
 21
-0.5154291338582677
 31
0.0
 11
-1.3596653543307087
 21
-0.5138937007874016
 31
0.0
 11
-1.3618385826771653
 21
-0.5124763779527559
 31
0.0
 11
-1.3640472440944882
 21
-0.5111653543307086
 31
0.0
 11
-1.3663070866141733
 21
-0.5099685039370079
 31
0.0
 11
-1.3686062992125985
 21
-0.5088818897637796
 31
0.0
 11
-1.3709566929133858
 21
-0.5079133858267717
 31
0.0
 11
-1.372720472440945
 21
-0.5072637795275591
 31
0.0
 11
-1.3746259842519686
 21
-0.5066692913385826
 31
0.0
 11
-1.3766574803149607
 21
-0.5061062992125984
 31
0.0
 11
-1.3788267716535434
 21
-0.5055944881889763
 31
0.0
 11
-1.3811220472440946
 21
-0.5051141732283465
 31
0.0
 11
-1.3835511811023622
 21
-0.5046850393700787
 31
0.0
 11
-1.3861062992125985
 21
-0.5042952755905512
 31
0.0
 11
-1.3887952755905513
 21
-0.5039527559055118
 31
0.0
 11
-1.3916102362204725
 21
-0.5036377952755906
 31
0.0
 11
-1.3945551181102362
 21
-0.5033740157480315
 31
0.0
 11
-1.3976299212598424
 21
-0.5031496062992126
 31
0.0
 11
-1.4008385826771654
 21
-0.5029685039370079
 31
0.0
 11
-1.4041653543307087
 21
-0.5028188976377953
 31
0.0
 11
-1.4076299212598424
 21
-0.5027204724409449
 31
0.0
 11
-1.411220472440945
 21
-0.5026614173228347
 31
0.0
  0
LINE
  5
69
100
AcDbEntity
  8
0
 62
     0
100
AcDbLine
 10
-1.41122
 20
-0.502661
 30
0.0
 11
-1.414945
 21
-0.502646
 31
0.0
  0
LINE
  5
6A
100
AcDbEntity
  8
0
 62
     0
100
AcDbLine
 10
-1.414945
 20
-0.502646
 30
0.0
 11
-1.468988
 21
-0.502646
 31
0.0
  0
LINE
  5
6B
100
AcDbEntity
  8
0
 62
     0
100
AcDbLine
 10
-1.468988
 20
-0.502646
 30
0.0
 11
-1.468988
 21
-0.699
 31
0.0
  0
LINE
  5
6C
100
AcDbEntity
  8
0
 62
     0
100
AcDbLine
 10
-1.138091
 20
-0.729343
 30
0.0
 11
-1.138091
 21
-0.472303
 31
0.0
  0
LINE
  5
6D
100
AcDbEntity
  8
0
 62
     0
100
AcDbLine
 10
-1.138091
 20
-0.472303
 30
0.0
 11
-1.104094
 21
-0.472303
 31
0.0
  0
LINE
  5
6E
100
AcDbEntity
  8
0
 62
     0
100
AcDbLine
 10
-1.104094
 20
-0.472303
 30
0.0
 11
-1.104094
 21
-0.729343
 31
0.0
  0
LINE
  5
6F
100
AcDbEntity
  8
0
 62
     0
100
AcDbLine
 10
-1.104094
 20
-0.729343
 30
0.0
 11
-1.138091
 21
-0.729343
 31
0.0
  0
LINE
  5
70
100
AcDbEntity
  8
0
 62
     0
100
AcDbLine
 10
-0.955913
 20
-0.646756
 30
0.0
 11
-0.923835
 21
-0.643941
 31
0.0
  0
SPLINE
  5
71
100
AcDbEntity
  8
0
 62
     0
100
AcDbSpline
210
0.0
220
0.0
230
1.0
 70
     0
 71
     3
 72
     0
 73
     0
 74
   288
 44
0.0000000001
 11
-0.9238346456692913
 21
-0.6439409448818898
 31
0.0
 11
-0.9235275590551181
 21
-0.6463188976377953
 31
0.0
 11
-0.9231732283464567
 21
-0.6486535433070866
 31
0.0
 11
-0.922771653543307
 21
-0.6509251968503937
 31
0.0
 11
-0.9223267716535433
 21
-0.6531535433070866
 31
0.0
 11
-0.9218307086614174
 21
-0.6553149606299212
 31
0.0
 11
-0.9212874015748032
 21
-0.6574291338582677
 31
0.0
 11
-0.9206968503937008
 21
-0.659488188976378
 31
0.0
 11
-0.9200590551181103
 21
-0.6614960629921259
 31
0.0
 11
-0.9193661417322835
 21
-0.6634409448818898
 31
0.0
 11
-0.9186338582677165
 21
-0.6653385826771654
 31
0.0
 11
-0.9178543307086614
 21
-0.6671811023622047
 31
0.0
 11
-0.9170275590551181
 21
-0.6689763779527559
 31
0.0
 11
-0.9161496062992126
 21
-0.6707047244094488
 31
0.0
 11
-0.9152283464566929
 21
-0.6723897637795275
 31
0.0
 11
-0.9142598425196851
 21
-0.67401968503937
 31
0.0
 11
-0.913244094488189
 21
-0.6756023622047244
 31
0.0
 11
-0.9121574803149606
 21
-0.6771259842519685
 31
0.0
 11
-0.911007874015748
 21
-0.6786181102362204
 31
0.0
 11
-0.9097795275590551
 21
-0.6800669291338582
 31
0.0
 11
-0.908492125984252
 21
-0.681488188976378
 31
0.0
 11
-0.9071220472440945
 21
-0.6828661417322834
 31
0.0
 11
-0.9056850393700787
 21
-0.6842086614173228
 31
0.0
 11
-0.9041732283464568
 21
-0.685511811023622
 31
0.0
 11
-0.9026023622047245
 21
-0.6867834645669292
 31
0.0
 11
-0.9009488188976378
 21
-0.688007874015748
 31
0.0
 11
-0.8992244094488189
 21
-0.6892007874015748
 31
0.0
 11
-0.8974291338582677
 21
-0.6903543307086614
 31
0.0
 11
-0.8955669291338583
 21
-0.6914803149606299
 31
0.0
 11
-0.8936259842519685
 21
-0.6925590551181102
 31
0.0
 11
-0.8916181102362205
 21
-0.6936062992125984
 31
0.0
 11
-0.8895393700787402
 21
-0.6946141732283465
 31
0.0
 11
-0.8873897637795276
 21
-0.6955905511811024
 31
0.0
 11
-0.8851771653543307
 21
-0.696507874015748
 31
0.0
 11
-0.8829370078740157
 21
-0.6973740157480315
 31
0.0
 11
-0.8806574803149606
 21
-0.6981732283464567
 31
0.0
 11
-0.8783503937007874
 21
-0.6989212598425197
 31
0.0
 11
-0.876
 21
-0.6995984251968505
 31
0.0
 11
-0.8736220472440945
 21
-0.7002204724409449
 31
0.0
 11
-0.8712047244094489
 21
-0.7007834645669291
 31
0.0
 11
-0.8687598425196851
 21
-0.7012952755905512
 31
0.0
 11
-0.866271653543307
 21
-0.701736220472441
 31
0.0
 11
-0.863755905511811
 21
-0.7021220472440944
 31
0.0
 11
-0.8612007874015748
 21
-0.7024448818897637
 31
0.0
 11
-0.8586220472440945
 21
-0.7027125984251968
 31
0.0
 11
-0.856
 21
-0.7029173228346457
 31
0.0
 11
-0.8533503937007874
 21
-0.7030669291338583
 31
0.0
 11
-0.8506614173228346
 21
-0.7031574803149606
 31
0.0
 11
-0.8479448818897638
 21
-0.7031889763779528
 31
0.0
 11
-0.8455236220472441
 21
-0.7031653543307087
 31
0.0
 11
-0.8431456692913386
 21
-0.7030944881889764
 31
0.0
 11
-0.8407992125984252
 21
-0.70298031496063
 31
0.0
 11
-0.8384921259842519
 21
-0.7028267716535434
 31
0.0
 11
-0.8362165354330708
 21
-0.7026220472440945
 31
0.0
 11
-0.83398031496063
 21
-0.7023740157480315
 31
0.0
 11
-0.8317795275590552
 21
-0.7020826771653543
 31
0.0
 11
-0.8296220472440945
 21
-0.7017519685039371
 31
0.0
 11
-0.827488188976378
 21
-0.7013661417322835
 31
0.0
 11
-0.8253976377952756
 21
-0.7009409448818897
 31
0.0
 11
-0.8233385826771653
 21
-0.7004685039370079
 31
0.0
 11
-0.8213228346456692
 21
-0.6999527559055118
 31
0.0
 11
-0.8193346456692914
 21
-0.6993897637795276
 31
0.0
 11
-0.8173858267716535
 21
-0.6987874015748031
 31
0.0
 11
-0.8154685039370079
 21
-0.6981377952755905
 31
0.0
 11
-0.8135944881889764
 21
-0.6974448818897638
 31
0.0
 11
-0.811755905511811
 21
-0.6966929133858267
 31
0.0
 11
-0.8099803149606299
 21
-0.6959173228346457
 31
0.0
 11
-0.808263779527559
 21
-0.6951062992125985
 31
0.0
 11
-0.8066141732283465
 21
-0.694263779527559
 31
0.0
 11
-0.8050118110236221
 21
-0.6933818897637796
 31
0.0
 11
-0.803476377952756
 21
-0.6924763779527559
 31
0.0
 11
-0.801996062992126
 21
-0.6915354330708662
 31
0.0
 11
-0.8005826771653544
 21
-0.6905669291338583
 31
0.0
 11
-0.7992204724409449
 21
-0.6895551181102362
 31
0.0
 11
-0.7979251968503937
 21
-0.6885196850393701
 31
0.0
 11
-0.7966811023622047
 21
-0.6874448818897638
 31
0.0
 11
-0.795503937007874
 21
-0.6863425196850393
 31
0.0
 11
-0.7943818897637796
 21
-0.6852007874015748
 31
0.0
 11
-0.7933267716535433
 21
-0.6840275590551181
 31
0.0
 11
-0.7923267716535433
 21
-0.6828188976377952
 31
0.0
 11
-0.7913937007874016
 21
-0.6815866141732283
 31
0.0
 11
-0.7905078740157481
 21
-0.6803070866141733
 31
0.0
 11
-0.7896850393700787
 21
-0.6790196850393701
 31
0.0
 11
-0.7889133858267716
 21
-0.6777165354330709
 31
0.0
 11
-0.7882047244094488
 21
-0.6764094488188976
 31
0.0
 11
-0.7875433070866141
 21
-0.6750787401574803
 31
0.0
 11
-0.7869448818897638
 21
-0.6737401574803149
 31
0.0
 11
-0.7864015748031497
 21
-0.6723858267716536
 31
0.0
 11
-0.7859212598425197
 21
-0.6710236220472441
 31
0.0
 11
-0.785488188976378
 21
-0.6696377952755905
 31
0.0
 11
-0.7851141732283464
 21
-0.668240157480315
 31
0.0
 11
-0.7847992125984252
 21
-0.6668307086614174
 31
0.0
 11
-0.7845433070866141
 21
-0.6654094488188976
 31
0.0
 11
-0.7843385826771654
 21
-0.6639645669291339
 31
0.0
 11
-0.7842007874015748
 21
-0.662511811023622
 31
0.0
 11
-0.7841141732283464
 21
-0.6610433070866142
 31
0.0
 11
-0.7840905511811024
 21
-0.6595629921259842
 31
0.0
 11
-0.7841141732283464
 21
-0.6580590551181103
 31
0.0
 11
-0.7841968503937008
 21
-0.6565826771653543
 31
0.0
 11
-0.7843346456692913
 21
-0.6551299212598425
 31
0.0
 11
-0.7845275590551181
 21
-0.6537007874015748
 31
0.0
 11
-0.7847716535433071
 21
-0.6522952755905512
 31
0.0
 11
-0.7850748031496063
 21
-0.6509133858267716
 31
0.0
 11
-0.7854291338582677
 21
-0.6495551181102363
 31
0.0
 11
-0.7858464566929134
 21
-0.648232283464567
 31
0.0
 11
-0.7863110236220472
 21
-0.6469212598425197
 31
0.0
 11
-0.7868346456692913
 21
-0.6456377952755905
 31
0.0
 11
-0.7874094488188976
 21
-0.6443740157480316
 31
0.0
 11
-0.7880472440944882
 21
-0.6431456692913385
 31
0.0
 11
-0.788736220472441
 21
-0.6419291338582677
 31
0.0
 11
-0.7894842519685039
 21
-0.640740157480315
 31
0.0
 11
-0.7902874015748032
 21
-0.6395708661417323
 31
0.0
 11
-0.7911535433070867
 21
-0.6384370078740157
 31
0.0
 11
-0.7920629921259843
 21
-0.6373149606299212
 31
0.0
 11
-0.7930433070866142
 21
-0.6362165354330709
 31
0.0
 11
-0.7940944881889764
 21
-0.6351417322834646
 31
0.0
 11
-0.7952244094488189
 21
-0.6340905511811024
 31
0.0
 11
-0.7964173228346457
 21
-0.6330629921259843
 31
0.0
 11
-0.7976811023622047
 21
-0.6320590551181102
 31
0.0
 11
-0.7990157480314961
 21
-0.6310787401574803
 31
0.0
 11
-0.8004330708661417
 21
-0.6301220472440945
 31
0.0
 11
-0.8019094488188976
 21
-0.6291811023622047
 31
0.0
 11
-0.8034566929133858
 21
-0.6282716535433071
 31
0.0
 11
-0.8050748031496063
 21
-0.6273858267716536
 31
0.0
 11
-0.8067755905511811
 21
-0.6265236220472441
 31
0.0
 11
-0.8085354330708662
 21
-0.6256732283464567
 31
0.0
 11
-0.8103661417322835
 21
-0.6248582677165354
 31
0.0
 11
-0.8122677165354331
 21
-0.6240629921259843
 31
0.0
 11
-0.814251968503937
 21
-0.6232952755905512
 31
0.0
 11
-0.8156456692913386
 21
-0.6227677165354331
 31
0.0
 11
-0.817240157480315
 21
-0.6222086614173228
 31
0.0
 11
-0.8190236220472441
 21
-0.6216141732283464
 31
0.0
 11
-0.821007874015748
 21
-0.620992125984252
 31
0.0
 11
-0.8231811023622048
 21
-0.6203267716535433
 31
0.0
 11
-0.8255551181102362
 21
-0.6196338582677166
 31
0.0
 11
-0.8281181102362205
 21
-0.6188976377952756
 31
0.0
 11
-0.8308818897637795
 21
-0.6181338582677165
 31
0.0
 11
-0.8338346456692913
 21
-0.6173267716535433
 31
0.0
 11
-0.8369881889763779
 21
-0.616492125984252
 31
0.0
 11
-0.8403346456692914
 21
-0.6156141732283464
 31
0.0
 11
-0.8438818897637795
 21
-0.6147086614173228
 31
0.0
 11
-0.8476220472440945
 21
-0.6137598425196851
 31
0.0
 11
-0.8515629921259843
 21
-0.6127834645669291
 31
0.0
 11
-0.8556968503937008
 21
-0.6117716535433071
 31
0.0
 11
-0.8600354330708662
 21
-0.6107283464566929
 31
0.0
 11
-0.8643700787401575
 21
-0.6096614173228346
 31
0.0
 11
-0.8685472440944881
 21
-0.6086102362204724
 31
0.0
 11
-0.8725511811023622
 21
-0.6075629921259843
 31
0.0
 11
-0.8764015748031496
 21
-0.6065275590551181
 31
0.0
 11
-0.8800748031496063
 21
-0.605496062992126
 31
0.0
 11
-0.8835944881889764
 21
-0.6044724409448818
 31
0.0
 11
-0.8869488188976378
 21
-0.6034566929133858
 31
0.0
 11
-0.8901377952755906
 21
-0.6024566929133858
 31
0.0
 11
-0.8931496062992126
 21
-0.6014566929133859
 31
0.0
 11
-0.896007874015748
 21
-0.6004685039370079
 31
0.0
 11
-0.8986968503937008
 21
-0.599484251968504
 31
0.0
 11
-0.9012244094488189
 21
-0.5985118110236221
 31
0.0
 11
-0.9035748031496063
 21
-0.5975393700787401
 31
0.0
 11
-0.9057677165354331
 21
-0.5965826771653543
 31
0.0
 11
-0.9077874015748032
 21
-0.5956299212598425
 31
0.0
 11
-0.9096535433070866
 21
-0.5946889763779527
 31
0.0
 11
-0.9119094488188977
 21
-0.5934645669291339
 31
0.0
 11
-0.9141023622047244
 21
-0.5922086614173229
 31
0.0
 11
-0.9162165354330709
 21
-0.5909133858267717
 31
0.0
 11
-0.918267716535433
 21
-0.5895826771653543
 31
0.0
 11
-0.920232283464567
 21
-0.5882086614173229
 31
0.0
 11
-0.9221338582677165
 21
-0.5868031496062992
 31
0.0
 11
-0.9239566929133858
 21
-0.5853582677165354
 31
0.0
 11
-0.9257165354330709
 21
-0.5838858267716536
 31
0.0
 11
-0.9273937007874016
 21
-0.5823661417322835
 31
0.0
 11
-0.9290000000000001
 21
-0.5808149606299212
 31
0.0
 11
-0.9305354330708662
 21
-0.5792244094488189
 31
0.0
 11
-0.9320000000000001
 21
-0.5776023622047244
 31
0.0
 11
-0.9333818897637796
 21
-0.5759409448818897
 31
0.0
 11
-0.9347047244094489
 21
-0.574248031496063
 31
0.0
 11
-0.9359448818897638
 21
-0.5725157480314961
 31
0.0
 11
-0.9371220472440945
 21
-0.5707519685039371
 31
0.0
 11
-0.9382086614173228
 21
-0.5689448818897638
 31
0.0
 11
-0.9392244094488189
 21
-0.5671220472440945
 31
0.0
 11
-0.9401692913385826
 21
-0.5652677165354331
 31
0.0
 11
-0.9410472440944881
 21
-0.5633937007874016
 31
0.0
 11
-0.9418503937007874
 21
-0.5614842519685039
 31
0.0
 11
-0.9425905511811024
 21
-0.5595551181102362
 31
0.0
 11
-0.943251968503937
 21
-0.5575944881889764
 31
0.0
 11
-0.9438543307086614
 21
-0.5556141732283465
 31
0.0
 11
-0.9443740157480315
 21
-0.5535944881889764
 31
0.0
 11
-0.9448346456692913
 21
-0.5515590551181102
 31
0.0
 11
-0.9452165354330708
 21
-0.5494842519685039
 31
0.0
 11
-0.9455354330708662
 21
-0.5473937007874016
 31
0.0
 11
-0.9457795275590551
 21
-0.545263779527559
 31
0.0
 11
-0.9459566929133858
 21
-0.5431141732283464
 31
0.0
 11
-0.9460629921259842
 21
-0.5409330708661417
 31
0.0
 11
-0.9460984251968504
 21
-0.5387322834645669
 31
0.0
 11
-0.9460511811023622
 21
-0.5363110236220472
 31
0.0
 11
-0.9459251968503937
 21
-0.5339173228346457
 31
0.0
 11
-0.9457086614173228
 21
-0.5315354330708662
 31
0.0
 11
-0.9454094488188977
 21
-0.5291811023622047
 31
0.0
 11
-0.9450196850393701
 21
-0.5268346456692914
 31
0.0
 11
-0.9445511811023623
 21
-0.5245196850393701
 31
0.0
 11
-0.943992125984252
 21
-0.5222165354330709
 31
0.0
 11
-0.9433503937007874
 21
-0.5199409448818898
 31
0.0
 11
-0.9426141732283465
 21
-0.5176732283464567
 31
0.0
 11
-0.9417992125984253
 21
-0.5154330708661418
 31
0.0
 11
-0.9408976377952756
 21
-0.5132047244094489
 31
0.0
 11
-0.9399094488188976
 21
-0.511007874015748
 31
0.0
 11
-0.9388307086614173
 21
-0.5088228346456692
 31
0.0
 11
-0.9376692913385827
 21
-0.5066614173228347
 31
0.0
 11
-0.9364173228346456
 21
-0.5045196850393701
 31
0.0
 11
-0.9350866141732284
 21
-0.5024055118110237
 31
0.0
 11
-0.9336614173228347
 21
-0.5003070866141732
 31
0.0
 11
-0.9321614173228346
 21
-0.4982834645669291
 31
0.0
 11
-0.9305787401574803
 21
-0.4963228346456693
 31
0.0
 11
-0.9289212598425197
 21
-0.4944330708661417
 31
0.0
 11
-0.9271771653543307
 21
-0.4925944881889764
 31
0.0
 11
-0.9253622047244094
 21
-0.4908307086614173
 31
0.0
 11
-0.9234645669291338
 21
-0.4891259842519685
 31
0.0
 11
-0.921492125984252
 21
-0.487492125984252
 31
0.0
 11
-0.9194291338582677
 21
-0.4859133858267716
 31
0.0
 11
-0.9172952755905511
 21
-0.4844015748031496
 31
0.0
 11
-0.9150787401574804
 21
-0.4829527559055118
 31
0.0
 11
-0.9127874015748032
 21
-0.4815748031496063
 31
0.0
 11
-0.9104094488188976
 21
-0.480248031496063
 31
0.0
 11
-0.9079606299212598
 21
-0.478992125984252
 31
0.0
 11
-0.9054330708661418
 21
-0.4777992125984252
 31
0.0
 11
-0.9028307086614174
 21
-0.4766732283464567
 31
0.0
 11
-0.9001456692913386
 21
-0.4756102362204724
 31
0.0
 11
-0.8974330708661418
 21
-0.4746259842519685
 31
0.0
 11
-0.8946850393700787
 21
-0.4737047244094488
 31
0.0
 11
-0.8919055118110236
 21
-0.4728543307086614
 31
0.0
 11
-0.8890787401574803
 21
-0.4720629921259842
 31
0.0
 11
-0.8862244094488189
 21
-0.4713503937007874
 31
0.0
 11
-0.8833346456692913
 21
-0.4707007874015748
 31
0.0
 11
-0.8804094488188976
 21
-0.4701259842519685
 31
0.0
 11
-0.8774409448818897
 21
-0.4696062992125984
 31
0.0
 11
-0.8744409448818897
 21
-0.4691653543307087
 31
0.0
 11
-0.8714015748031496
 21
-0.4687874015748031
 31
0.0
 11
-0.8683307086614174
 21
-0.468484251968504
 31
0.0
 11
-0.8652165354330709
 21
-0.468236220472441
 31
0.0
 11
-0.8620708661417322
 21
-0.4680708661417323
 31
0.0
 11
-0.8588858267716536
 21
-0.4679645669291339
 31
0.0
 11
-0.8556653543307087
 21
-0.4679370078740158
 31
0.0
 11
-0.8521062992125984
 21
-0.4679724409448819
 31
0.0
 11
-0.8486102362204725
 21
-0.4680787401574803
 31
0.0
 11
-0.8451653543307086
 21
-0.468255905511811
 31
0.0
 11
-0.8417795275590552
 21
-0.468503937007874
 31
0.0
 11
-0.8384409448818898
 21
-0.4688228346456693
 31
0.0
 11
-0.8351574803149606
 21
-0.4692204724409449
 31
0.0
 11
-0.8319291338582677
 21
-0.4696850393700787
 31
0.0
 11
-0.828755905511811
 21
-0.4702283464566929
 31
0.0
 11
-0.8256259842519685
 21
-0.4708385826771653
 31
0.0
 11
-0.8225551181102362
 21
-0.4715236220472441
 31
0.0
 11
-0.8195354330708662
 21
-0.4722795275590551
 31
0.0
 11
-0.8165708661417322
 21
-0.4731102362204724
 31
0.0
 11
-0.8136535433070866
 21
-0.474007874015748
 31
0.0
 11
-0.8107874015748031
 21
-0.4749842519685039
 31
0.0
 11
-0.8079763779527559
 21
-0.4760314960629921
 31
0.0
 11
-0.8052165354330708
 21
-0.4771535433070866
 31
0.0
 11
-0.8025236220472442
 21
-0.4783228346456693
 31
0.0
 11
-0.7999173228346457
 21
-0.4795748031496063
 31
0.0
 11
-0.7973858267716536
 21
-0.4808858267716535
 31
0.0
 11
-0.7949370078740158
 21
-0.4822755905511811
 31
0.0
 11
-0.7925590551181102
 21
-0.4837244094488189
 31
0.0
 11
-0.790267716535433
 21
-0.485248031496063
 31
0.0
 11
-0.7880472440944882
 21
-0.4868346456692914
 31
0.0
 11
-0.7859133858267716
 21
-0.4885
 31
0.0
 11
-0.7838503937007874
 21
-0.4902204724409449
 31
0.0
 11
-0.7818700787401575
 21
-0.4920157480314961
 31
0.0
 11
-0.7799685039370079
 21
-0.4938740157480315
 31
0.0
 11
-0.7781496062992126
 21
-0.4958070866141732
 31
0.0
 11
-0.7764015748031496
 21
-0.4977992125984252
 31
0.0
 11
-0.774736220472441
 21
-0.4998661417322834
 31
0.0
 11
-0.7731496062992126
 21
-0.501996062992126
 31
0.0
 11
-0.7716417322834646
 21
-0.5042007874015748
 31
0.0
 11
-0.7702204724409449
 21
-0.5064488188976378
 31
0.0
 11
-0.7688897637795276
 21
-0.5087362204724409
 31
0.0
 11
-0.7676338582677166
 21
-0.5110590551181102
 31
0.0
 11
-0.7664685039370078
 21
-0.5134291338582677
 31
0.0
 11
-0.7653779527559055
 21
-0.5158307086614173
 31
0.0
 11
-0.7643818897637795
 21
-0.5182716535433071
 31
0.0
 11
-0.7634645669291339
 21
-0.520748031496063
 31
0.0
 11
-0.7626338582677166
 21
-0.523267716535433
 31
0.0
 11
-0.7618818897637796
 21
-0.5258149606299213
 31
0.0
 11
-0.7612165354330709
 21
-0.5284055118110236
 31
0.0
 11
-0.7606338582677166
 21
-0.5310314960629922
 31
0.0
 11
-0.7601417322834646
 21
-0.5336968503937007
 31
0.0
 11
-0.759728346456693
 21
-0.5363937007874016
 31
0.0
 11
-0.7594055118110237
 21
-0.5391299212598425
 31
0.0
 11
-0.7591653543307086
 21
-0.5419015748031496
 31
0.0
  0
LINE
  5
72
100
AcDbEntity
  8
0
 62
     0
100
AcDbLine
 10
-0.759165
 20
-0.541902
 30
0.0
 11
-0.759016
 21
-0.544717
 31
0.0
  0
LINE
  5
73
100
AcDbEntity
  8
0
 62
     0
100
AcDbLine
 10
-0.759016
 20
-0.544717
 30
0.0
 11
-0.79163
 21
-0.547173
 31
0.0
  0
SPLINE
  5
74
100
AcDbEntity
  8
0
 62
     0
100
AcDbSpline
210
0.0
220
0.0
230
1.0
 70
     0
 71
     3
 72
     0
 73
     0
 74
   241
 44
0.0000000001
 11
-0.7916299212598426
 21
-0.5471732283464567
 31
0.0
 11
-0.792007874015748
 21
-0.5441732283464567
 31
0.0
 11
-0.792492125984252
 21
-0.541267716535433
 31
0.0
 11
-0.7930708661417323
 21
-0.5384527559055118
 31
0.0
 11
-0.793748031496063
 21
-0.535736220472441
 31
0.0
 11
-0.7945157480314961
 21
-0.5331023622047244
 31
0.0
 11
-0.7953897637795275
 21
-0.5305708661417323
 31
0.0
 11
-0.7963582677165354
 21
-0.5281259842519686
 31
0.0
 11
-0.7974251968503937
 21
-0.5257834645669292
 31
0.0
 11
-0.7985826771653544
 21
-0.5235196850393701
 31
0.0
 11
-0.7998425196850394
 21
-0.5213582677165355
 31
0.0
 11
-0.8012007874015749
 21
-0.5192913385826772
 31
0.0
 11
-0.8026574803149607
 21
-0.5173188976377953
 31
0.0
 11
-0.8042086614173228
 21
-0.5154330708661418
 31
0.0
 11
-0.8058622047244095
 21
-0.5136496062992126
 31
0.0
 11
-0.8076102362204725
 21
-0.5119606299212598
 31
0.0
 11
-0.8094645669291338
 21
-0.5103661417322835
 31
0.0
 11
-0.8114133858267717
 21
-0.5088503937007874
 31
0.0
 11
-0.8134803149606299
 21
-0.5074370078740158
 31
0.0
 11
-0.8156535433070866
 21
-0.5061220472440945
 31
0.0
 11
-0.8179448818897638
 21
-0.5049055118110236
 31
0.0
 11
-0.8203425196850394
 21
-0.5037834645669291
 31
0.0
 11
-0.8228582677165355
 21
-0.502763779527559
 31
0.0
 11
-0.8254803149606299
 21
-0.5018425196850394
 31
0.0
 11
-0.828228346456693
 21
-0.5010196850393701
 31
0.0
 11
-0.8310748031496062
 21
-0.5002874015748031
 31
0.0
 11
-0.8340472440944882
 21
-0.4996574803149607
 31
0.0
 11
-0.8371220472440945
 21
-0.4991259842519685
 31
0.0
 11
-0.8403188976377953
 21
-0.4986889763779527
 31
0.0
 11
-0.8436220472440945
 21
-0.4983464566929134
 31
0.0
 11
-0.8470472440944882
 21
-0.4981062992125984
 31
0.0
 11
-0.8505787401574804
 21
-0.4979645669291339
 31
0.0
 11
-0.8542322834645669
 21
-0.4979173228346457
 31
0.0
 11
-0.8580196850393701
 21
-0.4979566929133859
 31
0.0
 11
-0.8616811023622047
 21
-0.4980866141732284
 31
0.0
 11
-0.8652086614173229
 21
-0.4983031496062992
 31
0.0
 11
-0.8686141732283464
 21
-0.4986181102362205
 31
0.0
 11
-0.8718779527559055
 21
-0.499011811023622
 31
0.0
 11
-0.8750157480314961
 21
-0.499503937007874
 31
0.0
 11
-0.8780236220472441
 21
-0.5000748031496063
 31
0.0
 11
-0.8809055118110236
 21
-0.500744094488189
 31
0.0
 11
-0.8836496062992126
 21
-0.5014881889763779
 31
0.0
 11
-0.8862677165354331
 21
-0.5023267716535433
 31
0.0
 11
-0.888751968503937
 21
-0.5032519685039371
 31
0.0
 11
-0.8911102362204725
 21
-0.5042755905511811
 31
0.0
 11
-0.8933346456692913
 21
-0.5053779527559055
 31
0.0
 11
-0.8954330708661418
 21
-0.5065708661417323
 31
0.0
 11
-0.8973976377952756
 21
-0.5078503937007874
 31
0.0
 11
-0.8992401574803149
 21
-0.5092283464566929
 31
0.0
 11
-0.9009409448818898
 21
-0.5106535433070866
 31
0.0
 11
-0.9025393700787402
 21
-0.5121259842519685
 31
0.0
 11
-0.9040236220472441
 21
-0.5136299212598425
 31
0.0
 11
-0.9054055118110236
 21
-0.5151732283464567
 31
0.0
 11
-0.9066692913385827
 21
-0.516748031496063
 31
0.0
 11
-0.9078307086614174
 21
-0.5183622047244094
 31
0.0
 11
-0.9088779527559056
 21
-0.520007874015748
 31
0.0
 11
-0.9098188976377952
 21
-0.5216968503937008
 31
0.0
 11
-0.9106417322834646
 21
-0.5234133858267717
 31
0.0
 11
-0.9113622047244094
 21
-0.5251692913385827
 31
0.0
 11
-0.9119724409448818
 21
-0.5269606299212598
 31
0.0
 11
-0.9124724409448819
 21
-0.5287952755905512
 31
0.0
 11
-0.9128582677165354
 21
-0.5306535433070866
 31
0.0
 11
-0.9131377952755906
 21
-0.5325511811023622
 31
0.0
 11
-0.9133031496062992
 21
-0.5344842519685039
 31
0.0
 11
-0.9133622047244094
 21
-0.5364606299212599
 31
0.0
 11
-0.9133188976377953
 21
-0.5381771653543307
 31
0.0
 11
-0.9132007874015748
 21
-0.5398582677165354
 31
0.0
 11
-0.913003937007874
 21
-0.5414960629921259
 31
0.0
 11
-0.9127322834645669
 21
-0.5430984251968504
 31
0.0
 11
-0.9123740157480315
 21
-0.5446574803149606
 31
0.0
 11
-0.9119448818897638
 21
-0.5461811023622047
 31
0.0
 11
-0.9114370078740157
 21
-0.5476653543307086
 31
0.0
 11
-0.9108543307086614
 21
-0.5491141732283464
 31
0.0
 11
-0.9101850393700788
 21
-0.5505157480314961
 31
0.0
 11
-0.9094409448818898
 21
-0.5518818897637795
 31
0.0
 11
-0.9086181102362205
 21
-0.5532047244094488
 31
0.0
 11
-0.9077283464566929
 21
-0.554496062992126
 31
0.0
 11
-0.906748031496063
 21
-0.555744094488189
 31
0.0
 11
-0.9056968503937007
 21
-0.5569527559055119
 31
0.0
 11
-0.9045669291338583
 21
-0.5581220472440945
 31
0.0
 11
-0.9033661417322835
 21
-0.5592598425196851
 31
0.0
 11
-0.9020039370078741
 21
-0.5603818897637796
 31
0.0
 11
-0.9004015748031496
 21
-0.561503937007874
 31
0.0
 11
-0.8985511811023622
 21
-0.5626299212598426
 31
0.0
 11
-0.8964606299212599
 21
-0.5637637795275591
 31
0.0
 11
-0.8941141732283464
 21
-0.5648976377952756
 31
0.0
 11
-0.8915314960629921
 21
-0.5660354330708661
 31
0.0
 11
-0.8886929133858268
 21
-0.5671771653543307
 31
0.0
 11
-0.8856181102362205
 21
-0.5683228346456692
 31
0.0
 11
-0.8822834645669292
 21
-0.5694685039370079
 31
0.0
 11
-0.8787125984251969
 21
-0.5706141732283465
 31
0.0
 11
-0.8748897637795275
 21
-0.5717637795275591
 31
0.0
 11
-0.8708228346456693
 21
-0.5729212598425197
 31
0.0
 11
-0.866503937007874
 21
-0.5740787401574803
 31
0.0
 11
-0.8619409448818898
 21
-0.575240157480315
 31
0.0
 11
-0.8571259842519685
 21
-0.5764055118110236
 31
0.0
 11
-0.8520748031496063
 21
-0.5775748031496063
 31
0.0
 11
-0.846988188976378
 21
-0.5787401574803149
 31
0.0
 11
-0.8421102362204724
 21
-0.5798858267716536
 31
0.0
 11
-0.8374291338582677
 21
-0.581015748031496
 31
0.0
 11
-0.8329606299212599
 21
-0.5821259842519685
 31
0.0
 11
-0.8286889763779528
 21
-0.5832125984251969
 31
0.0
 11
-0.8246259842519685
 21
-0.5842834645669291
 31
0.0
 11
-0.820759842519685
 21
-0.5853346456692914
 31
0.0
 11
-0.8171062992125985
 21
-0.5863740157480315
 31
0.0
 11
-0.8136456692913386
 21
-0.5873858267716535
 31
0.0
 11
-0.8103937007874016
 21
-0.5883818897637795
 31
0.0
 11
-0.8073425196850393
 21
-0.5893582677165354
 31
0.0
 11
-0.804503937007874
 21
-0.5903188976377953
 31
0.0
 11
-0.8018582677165355
 21
-0.5912559055118111
 31
0.0
 11
-0.7994212598425197
 21
-0.5921771653543307
 31
0.0
 11
-0.7971850393700788
 21
-0.5930826771653543
 31
0.0
 11
-0.7951614173228346
 21
-0.5939724409448819
 31
0.0
 11
-0.7923976377952756
 21
-0.5952874015748032
 31
0.0
 11
-0.7897283464566929
 21
-0.5966535433070866
 31
0.0
 11
-0.7871456692913386
 21
-0.5980551181102363
 31
0.0
 11
-0.7846653543307086
 21
-0.599507874015748
 31
0.0
 11
-0.782267716535433
 21
-0.6009960629921259
 31
0.0
 11
-0.7799685039370079
 21
-0.6025314960629922
 31
0.0
 11
-0.7777559055118111
 21
-0.6041023622047245
 31
0.0
 11
-0.7756417322834646
 21
-0.6057283464566929
 31
0.0
 11
-0.7736102362204724
 21
-0.6073818897637795
 31
0.0
 11
-0.7716771653543307
 21
-0.6090866141732283
 31
0.0
 11
-0.7698307086614173
 21
-0.6108267716535433
 31
0.0
 11
-0.7680826771653543
 21
-0.6126181102362205
 31
0.0
 11
-0.7664173228346457
 21
-0.6144409448818897
 31
0.0
 11
-0.7648582677165354
 21
-0.6163149606299213
 31
0.0
 11
-0.7633818897637795
 21
-0.6182244094488189
 31
0.0
 11
-0.762007874015748
 21
-0.6201850393700787
 31
0.0
 11
-0.7607086614173229
 21
-0.6221850393700787
 31
0.0
 11
-0.7595
 21
-0.6242283464566929
 31
0.0
 11
-0.7583700787401575
 21
-0.6263031496062992
 31
0.0
 11
-0.7573307086614173
 21
-0.6284251968503937
 31
0.0
 11
-0.7563700787401575
 21
-0.6305787401574803
 31
0.0
 11
-0.7555
 21
-0.6327716535433071
 31
0.0
 11
-0.7547086614173229
 21
-0.635
 31
0.0
 11
-0.754007874015748
 21
-0.6372716535433071
 31
0.0
 11
-0.7533779527559055
 21
-0.6395708661417323
 31
0.0
 11
-0.7528425196850394
 21
-0.6419173228346456
 31
0.0
 11
-0.7523858267716536
 21
-0.6442952755905512
 31
0.0
 11
-0.7520157480314961
 21
-0.6467125984251969
 31
0.0
 11
-0.7517244094488189
 21
-0.6491614173228346
 31
0.0
 11
-0.7515196850393701
 21
-0.6516574803149606
 31
0.0
 11
-0.7513937007874015
 21
-0.6541811023622047
 31
0.0
 11
-0.7513543307086614
 21
-0.656748031496063
 31
0.0
 11
-0.7513937007874015
 21
-0.6593031496062992
 31
0.0
 11
-0.7515314960629921
 21
-0.6618425196850394
 31
0.0
 11
-0.751755905511811
 21
-0.6643622047244094
 31
0.0
 11
-0.7520826771653544
 21
-0.6668661417322834
 31
0.0
 11
-0.7524881889763779
 21
-0.6693464566929134
 31
0.0
 11
-0.752996062992126
 21
-0.6718070866141732
 31
0.0
 11
-0.7535866141732284
 21
-0.674251968503937
 31
0.0
 11
-0.7542795275590551
 21
-0.6766811023622047
 31
0.0
 11
-0.7550511811023623
 21
-0.6790826771653543
 31
0.0
 11
-0.7559251968503937
 21
-0.6814685039370079
 31
0.0
 11
-0.7568818897637796
 21
-0.6838385826771654
 31
0.0
 11
-0.7579409448818898
 21
-0.6861929133858268
 31
0.0
 11
-0.7590866141732283
 21
-0.6885196850393701
 31
0.0
 11
-0.7603267716535433
 21
-0.6908346456692913
 31
0.0
 11
-0.7616574803149606
 21
-0.6931299212598425
 31
0.0
 11
-0.7630866141732283
 21
-0.6954094488188977
 31
0.0
 11
-0.7645905511811023
 21
-0.6976377952755906
 31
0.0
 11
-0.7661811023622047
 21
-0.6998110236220473
 31
0.0
 11
-0.7678503937007875
 21
-0.7019212598425197
 31
0.0
 11
-0.7696023622047244
 21
-0.7039685039370078
 31
0.0
 11
-0.7714291338582677
 21
-0.7059488188976378
 31
0.0
 11
-0.7733385826771654
 21
-0.7078700787401575
 31
0.0
 11
-0.7753267716535434
 21
-0.7097283464566929
 31
0.0
 11
-0.7774015748031496
 21
-0.7115275590551181
 31
0.0
 11
-0.7795472440944882
 21
-0.713259842519685
 31
0.0
 11
-0.7817755905511811
 21
-0.7149291338582677
 31
0.0
 11
-0.7840866141732283
 21
-0.7165354330708661
 31
0.0
 11
-0.7864803149606299
 21
-0.7180866141732284
 31
0.0
 11
-0.7889448818897638
 21
-0.7195708661417323
 31
0.0
 11
-0.7914960629921259
 21
-0.720992125984252
 31
0.0
 11
-0.7941259842519685
 21
-0.7223543307086614
 31
0.0
 11
-0.7968385826771653
 21
-0.7236574803149606
 31
0.0
 11
-0.7996023622047244
 21
-0.7248661417322835
 31
0.0
 11
-0.8024212598425197
 21
-0.7260078740157481
 31
0.0
 11
-0.8052716535433071
 21
-0.7270629921259842
 31
0.0
 11
-0.8081771653543307
 21
-0.7280511811023622
 31
0.0
 11
-0.8111181102362205
 21
-0.7289527559055118
 31
0.0
 11
-0.8141062992125985
 21
-0.7297795275590551
 31
0.0
 11
-0.8171338582677166
 21
-0.7305236220472441
 31
0.0
 11
-0.8202125984251969
 21
-0.7311968503937008
 31
0.0
 11
-0.8233228346456692
 21
-0.7317795275590551
 31
0.0
 11
-0.826484251968504
 21
-0.7322913385826771
 31
0.0
 11
-0.8296811023622047
 21
-0.7327204724409449
 31
0.0
 11
-0.8329291338582677
 21
-0.7330787401574803
 31
0.0
 11
-0.8362125984251968
 21
-0.7333503937007874
 31
0.0
 11
-0.8395433070866142
 21
-0.7335511811023622
 31
0.0
 11
-0.8429094488188976
 21
-0.7336692913385827
 31
0.0
 11
-0.8463307086614174
 21
-0.7337125984251969
 31
0.0
 11
-0.8506496062992126
 21
-0.7336692913385827
 31
0.0
 11
-0.8548818897637796
 21
-0.7335511811023622
 31
0.0
 11
-0.8590236220472441
 21
-0.7333503937007874
 31
0.0
 11
-0.8630787401574803
 21
-0.7330787401574803
 31
0.0
 11
-0.8670433070866142
 21
-0.7327165354330709
 31
0.0
 11
-0.8709212598425197
 21
-0.7322874015748031
 31
0.0
 11
-0.8747086614173228
 21
-0.7317716535433071
 31
0.0
 11
-0.8784133858267716
 21
-0.7311811023622047
 31
0.0
 11
-0.8820236220472441
 21
-0.7305
 31
0.0
 11
-0.8855433070866142
 21
-0.729748031496063
 31
0.0
 11
-0.8889763779527559
 21
-0.7289133858267717
 31
0.0
 11
-0.8923228346456693
 21
-0.728003937007874
 31
0.0
 11
-0.8955708661417323
 21
-0.727003937007874
 31
0.0
 11
-0.898736220472441
 21
-0.7259330708661418
 31
0.0
 11
-0.9018149606299213
 21
-0.7247716535433071
 31
0.0
 11
-0.9048031496062993
 21
-0.7235393700787401
 31
0.0
 11
-0.9077086614173229
 21
-0.7222244094488189
 31
0.0
 11
-0.9105393700787402
 21
-0.7208385826771654
 31
0.0
 11
-0.9132874015748032
 21
-0.7193661417322834
 31
0.0
 11
-0.9159645669291339
 21
-0.7178228346456693
 31
0.0
 11
-0.9185551181102363
 21
-0.7161889763779528
 31
0.0
 11
-0.9210669291338582
 21
-0.714484251968504
 31
0.0
 11
-0.9235
 21
-0.7126929133858267
 31
0.0
 11
-0.9258582677165355
 21
-0.7108267716535434
 31
0.0
 11
-0.9281299212598425
 21
-0.7088700787401575
 31
0.0
 11
-0.9303267716535433
 21
-0.7068425196850394
 31
0.0
 11
-0.9324409448818898
 21
-0.7047244094488189
 31
0.0
 11
-0.9344803149606299
 21
-0.7025354330708662
 31
0.0
 11
-0.9364330708661417
 21
-0.7002598425196851
 31
0.0
 11
-0.9383188976377953
 21
-0.6979055118110237
 31
0.0
 11
-0.9401181102362205
 21
-0.6954685039370079
 31
0.0
 11
-0.9418503937007874
 21
-0.6929566929133858
 31
0.0
 11
-0.9434685039370079
 21
-0.6903818897637796
 31
0.0
 11
-0.944992125984252
 21
-0.6877677165354331
 31
0.0
 11
-0.9464133858267717
 21
-0.6851102362204724
 31
0.0
 11
-0.947744094488189
 21
-0.6824173228346456
 31
0.0
 11
-0.9489685039370078
 21
-0.6796732283464567
 31
0.0
 11
-0.9501023622047244
 21
-0.6768897637795276
 31
0.0
 11
-0.9511299212598425
 21
-0.6740669291338582
 31
0.0
 11
-0.9520629921259842
 21
-0.6712007874015749
 31
0.0
 11
-0.9528897637795276
 21
-0.6682834645669291
 31
0.0
 11
-0.9536220472440945
 21
-0.6653307086614173
 31
0.0
 11
-0.954248031496063
 21
-0.6623385826771654
 31
0.0
 11
-0.9547874015748031
 21
-0.6593070866141733
 31
0.0
 11
-0.9552125984251969
 21
-0.6562244094488189
 31
0.0
 11
-0.9555472440944882
 21
-0.6531102362204725
 31
0.0
 11
-0.9557755905511811
 21
-0.6499527559055118
 31
0.0
 11
-0.9559133858267717
 21
-0.6467559055118111
 31
0.0
  0
LINE
  5
75
100
AcDbEntity
  8
0
 62
     0
100
AcDbLine
 10
-0.606524
 20
-0.729343
 30
0.0
 11
-0.606524
 21
-0.472303
 31
0.0
  0
LINE
  5
76
100
AcDbEntity
  8
0
 62
     0
100
AcDbLine
 10
-0.606524
 20
-0.472303
 30
0.0
 11
-0.572472
 21
-0.472303
 31
0.0
  0
LINE
  5
77
100
AcDbEntity
  8
0
 62
     0
100
AcDbLine
 10
-0.572472
 20
-0.472303
 30
0.0
 11
-0.572472
 21
-0.599776
 31
0.0
  0
LINE
  5
78
100
AcDbEntity
  8
0
 62
     0
100
AcDbLine
 10
-0.572472
 20
-0.599776
 30
0.0
 11
-0.444815
 21
-0.472303
 31
0.0
  0
LINE
  5
79
100
AcDbEntity
  8
0
 62
     0
100
AcDbLine
 10
-0.444815
 20
-0.472303
 30
0.0
 11
-0.398736
 21
-0.472303
 31
0.0
  0
LINE
  5
7A
100
AcDbEntity
  8
0
 62
     0
100
AcDbLine
 10
-0.398736
 20
-0.472303
 30
0.0
 11
-0.506575
 21
-0.576437
 31
0.0
  0
LINE
  5
7B
100
AcDbEntity
  8
0
 62
     0
100
AcDbLine
 10
-0.506575
 20
-0.576437
 30
0.0
 11
-0.394008
 21
-0.729343
 31
0.0
  0
LINE
  5
7C
100
AcDbEntity
  8
0
 62
     0
100
AcDbLine
 10
-0.394008
 20
-0.729343
 30
0.0
 11
-0.43889
 21
-0.729343
 31
0.0
  0
LINE
  5
7D
100
AcDbEntity
  8
0
 62
     0
100
AcDbLine
 10
-0.43889
 20
-0.729343
 30
0.0
 11
-0.530394
 21
-0.599236
 31
0.0
  0
LINE
  5
7E
100
AcDbEntity
  8
0
 62
     0
100
AcDbLine
 10
-0.530394
 20
-0.599236
 30
0.0
 11
-0.572472
 21
-0.640291
 31
0.0
  0
LINE
  5
7F
100
AcDbEntity
  8
0
 62
     0
100
AcDbLine
 10
-0.572472
 20
-0.640291
 30
0.0
 11
-0.572472
 21
-0.729343
 31
0.0
  0
LINE
  5
80
100
AcDbEntity
  8
0
 62
     0
100
AcDbLine
 10
-0.572472
 20
-0.729343
 30
0.0
 11
-0.606524
 21
-0.729343
 31
0.0
  0
LINE
  5
81
100
AcDbEntity
  8
0
 62
     0
100
AcDbLine
 10
-0.06574
 20
-0.729343
 30
0.0
 11
-0.06574
 21
-0.472303
 31
0.0
  0
LINE
  5
82
100
AcDbEntity
  8
0
 62
     0
100
AcDbLine
 10
-0.06574
 20
-0.472303
 30
0.0
 11
0.048209
 21
-0.472303
 31
0.0
  0
SPLINE
  5
83
100
AcDbEntity
  8
0
 62
     0
100
AcDbSpline
210
0.0
220
0.0
230
1.0
 70
     0
 71
     3
 72
     0
 73
     0
 74
   112
 44
0.0000000001
 11
0.0482086614173228
 21
-0.4723031496062992
 31
0.0
 11
0.0524370078740157
 21
-0.4723267716535433
 31
0.0
 11
0.0565433070866142
 21
-0.4724094488188976
 31
0.0
 11
0.0605157480314961
 21
-0.4725433070866142
 31
0.0
 11
0.0643622047244095
 21
-0.472736220472441
 31
0.0
 11
0.0680748031496063
 21
-0.4729803149606299
 31
0.0
 11
0.0716692913385827
 21
-0.4732795275590551
 31
0.0
 11
0.0751259842519685
 21
-0.4736299212598426
 31
0.0
 11
0.0784606299212598
 21
-0.4740433070866142
 31
0.0
 11
0.0816574803149606
 21
-0.4745
 31
0.0
 11
0.0847322834645669
 21
-0.4750196850393701
 31
0.0
 11
0.0876692913385827
 21
-0.4755866141732283
 31
0.0
 11
0.0904881889763779
 21
-0.4762125984251969
 31
0.0
 11
0.0931692913385827
 21
-0.4768858267716535
 31
0.0
 11
0.0957283464566929
 21
-0.4776181102362205
 31
0.0
 11
0.0981535433070866
 21
-0.4784055118110236
 31
0.0
 11
0.1004566929133858
 21
-0.479248031496063
 31
0.0
 11
0.1026574803149606
 21
-0.4801496062992126
 31
0.0
 11
0.1048070866141732
 21
-0.4811377952755905
 31
0.0
 11
0.1068976377952756
 21
-0.4822047244094488
 31
0.0
 11
0.1089370078740158
 21
-0.4833582677165355
 31
0.0
 11
0.1109133858267717
 21
-0.4845905511811023
 31
0.0
 11
0.1128385826771654
 21
-0.4859094488188976
 31
0.0
 11
0.1147086614173228
 21
-0.4873110236220473
 31
0.0
 11
0.1165275590551181
 21
-0.4888031496062992
 31
0.0
 11
0.1182795275590551
 21
-0.4903661417322835
 31
0.0
 11
0.1199842519685039
 21
-0.4920157480314961
 31
0.0
 11
0.1216299212598425
 21
-0.493748031496063
 31
0.0
 11
0.1232283464566929
 21
-0.4955708661417323
 31
0.0
 11
0.1247637795275591
 21
-0.4974645669291339
 31
0.0
 11
0.126251968503937
 21
-0.4994488188976378
 31
0.0
 11
0.1276811023622047
 21
-0.5015118110236221
 31
0.0
 11
0.1290629921259842
 21
-0.5036653543307087
 31
0.0
 11
0.1303503937007874
 21
-0.5058740157480315
 31
0.0
 11
0.1315590551181102
 21
-0.5081102362204725
 31
0.0
 11
0.1326850393700788
 21
-0.5103779527559055
 31
0.0
 11
0.1337283464566929
 21
-0.5126811023622048
 31
0.0
 11
0.1346811023622047
 21
-0.5150039370078741
 31
0.0
 11
0.1355551181102362
 21
-0.5173582677165355
 31
0.0
 11
0.1363425196850394
 21
-0.519740157480315
 31
0.0
 11
0.1370551181102362
 21
-0.5221535433070866
 31
0.0
 11
0.1376732283464567
 21
-0.5245866141732284
 31
0.0
 11
0.1382125984251968
 21
-0.5270551181102362
 31
0.0
 11
0.1386692913385827
 21
-0.5295472440944882
 31
0.0
 11
0.1390433070866142
 21
-0.5320748031496063
 31
0.0
 11
0.1393307086614173
 21
-0.5346220472440945
 31
0.0
 11
0.1395393700787402
 21
-0.5372007874015748
 31
0.0
 11
0.1396653543307087
 21
-0.5398070866141732
 31
0.0
 11
0.1397125984251968
 21
-0.5424448818897638
 31
0.0
 11
0.1396417322834646
 21
-0.5458307086614174
 31
0.0
 11
0.1394330708661417
 21
-0.5491496062992126
 31
0.0
 11
0.1390866141732284
 21
-0.5523976377952756
 31
0.0
 11
0.1386062992125984
 21
-0.5555826771653544
 31
0.0
 11
0.1379803149606299
 21
-0.5586929133858267
 31
0.0
 11
0.1372244094488189
 21
-0.5617401574803149
 31
0.0
 11
0.1363267716535433
 21
-0.5647165354330709
 31
0.0
 11
0.1352952755905512
 21
-0.5676338582677165
 31
0.0
 11
0.1341181102362205
 21
-0.5704763779527559
 31
0.0
 11
0.1328070866141732
 21
-0.573251968503937
 31
0.0
 11
0.1313543307086614
 21
-0.5759645669291339
 31
0.0
 11
0.1297637795275591
 21
-0.5786102362204725
 31
0.0
 11
0.1280275590551181
 21
-0.5811850393700787
 31
0.0
 11
0.1261574803149606
 21
-0.5836929133858267
 31
0.0
 11
0.1241496062992126
 21
-0.5861377952755905
 31
0.0
 11
0.122
 21
-0.5885236220472441
 31
0.0
 11
0.1197086614173228
 21
-0.5908110236220473
 31
0.0
 11
0.1172716535433071
 21
-0.592996062992126
 31
0.0
 11
0.1146771653543307
 21
-0.5950708661417323
 31
0.0
 11
0.1119409448818898
 21
-0.5970472440944882
 31
0.0
 11
0.1090472440944882
 21
-0.5989094488188976
 31
0.0
 11
0.106007874015748
 21
-0.6006732283464566
 31
0.0
 11
0.1028110236220473
 21
-0.6023228346456693
 31
0.0
 11
0.0994724409448819
 21
-0.6038740157480315
 31
0.0
 11
0.0959724409448819
 21
-0.6053070866141732
 31
0.0
 11
0.0923267716535433
 21
-0.6066377952755906
 31
0.0
 11
0.0885275590551181
 21
-0.6078622047244094
 31
0.0
 11
0.0845866141732284
 21
-0.608988188976378
 31
0.0
 11
0.0804842519685039
 21
-0.61
 31
0.0
 11
0.076240157480315
 21
-0.6109055118110236
 31
0.0
 11
0.0718385826771654
 21
-0.6117047244094488
 31
0.0
 11
0.0672992125984252
 21
-0.6124055118110237
 31
0.0
 11
0.0689645669291339
 21
-0.6132086614173229
 31
0.0
 11
0.0705826771653543
 21
-0.614011811023622
 31
0.0
 11
0.0721417322834646
 21
-0.6148149606299213
 31
0.0
 11
0.0736614173228346
 21
-0.6156220472440945
 31
0.0
 11
0.0751181102362205
 21
-0.6164173228346457
 31
0.0
 11
0.0765314960629921
 21
-0.6172204724409449
 31
0.0
 11
0.0778897637795276
 21
-0.6180236220472442
 31
0.0
 11
0.0792007874015748
 21
-0.6188267716535433
 31
0.0
 11
0.0804527559055118
 21
-0.6196181102362205
 31
0.0
 11
0.0816574803149606
 21
-0.6204212598425197
 31
0.0
 11
0.0828070866141732
 21
-0.6212165354330709
 31
0.0
 11
0.0839173228346457
 21
-0.6220196850393701
 31
0.0
 11
0.0849645669291339
 21
-0.6228110236220472
 31
0.0
 11
0.0859685039370079
 21
-0.6236141732283465
 31
0.0
 11
0.0869173228346457
 21
-0.6244094488188976
 31
0.0
 11
0.0878267716535433
 21
-0.6252125984251968
 31
0.0
 11
0.0896771653543307
 21
-0.6269409448818898
 31
0.0
 11
0.0915196850393701
 21
-0.628728346456693
 31
0.0
 11
0.0933464566929134
 21
-0.6305669291338583
 31
0.0
 11
0.0951692913385827
 21
-0.6324645669291339
 31
0.0
 11
0.0969724409448819
 21
-0.6344094488188976
 31
0.0
 11
0.0987716535433071
 21
-0.6364173228346457
 31
0.0
 11
0.1005511811023622
 21
-0.6384724409448819
 31
0.0
 11
0.1023267716535433
 21
-0.6405866141732284
 31
0.0
 11
0.1040826771653543
 21
-0.642748031496063
 31
0.0
 11
0.1058307086614173
 21
-0.6449645669291338
 31
0.0
 11
0.1075629921259843
 21
-0.647232283464567
 31
0.0
 11
0.1092913385826772
 21
-0.6495590551181102
 31
0.0
 11
0.111
 21
-0.6519330708661417
 31
0.0
 11
0.1127047244094488
 21
-0.6543622047244094
 31
0.0
 11
0.1143897637795276
 21
-0.6568425196850394
 31
0.0
  0
LINE
  5
84
100
AcDbEntity
  8
0
 62
     0
100
AcDbLine
 10
0.11439
 20
-0.656843
 30
0.0
 11
0.116075
 21
-0.659382
 31
0.0
  0
LINE
  5
85
100
AcDbEntity
  8
0
 62
     0
100
AcDbLine
 10
0.116075
 20
-0.659382
 30
0.0
 11
0.16078
 21
-0.729343
 31
0.0
  0
LINE
  5
86
100
AcDbEntity
  8
0
 62
     0
100
AcDbLine
 10
0.16078
 20
-0.729343
 30
0.0
 11
0.117988
 21
-0.729343
 31
0.0
  0
LINE
  5
87
100
AcDbEntity
  8
0
 62
     0
100
AcDbLine
 10
0.117988
 20
-0.729343
 30
0.0
 11
0.083996
 21
-0.675839
 31
0.0
  0
SPLINE
  5
88
100
AcDbEntity
  8
0
 62
     0
100
AcDbSpline
210
0.0
220
0.0
230
1.0
 70
     0
 71
     3
 72
     0
 73
     0
 74
    64
 44
0.0000000001
 11
0.083996062992126
 21
-0.6758385826771653
 31
0.0
 11
0.0821456692913386
 21
-0.6729881889763779
 31
0.0
 11
0.0803464566929134
 21
-0.670232283464567
 31
0.0
 11
0.0785826771653543
 21
-0.6675551181102363
 31
0.0
 11
0.0768661417322835
 21
-0.6649645669291339
 31
0.0
 11
0.0751811023622047
 21
-0.6624527559055118
 31
0.0
 11
0.0735472440944882
 21
-0.6600314960629922
 31
0.0
 11
0.0719448818897638
 21
-0.6576889763779528
 31
0.0
 11
0.0703937007874016
 21
-0.6554370078740157
 31
0.0
 11
0.0688700787401575
 21
-0.6532598425196851
 31
0.0
 11
0.0673937007874016
 21
-0.6511771653543307
 31
0.0
 11
0.0659566929133858
 21
-0.6491732283464567
 31
0.0
 11
0.0645669291338583
 21
-0.6472637795275591
 31
0.0
 11
0.0632086614173228
 21
-0.6454291338582677
 31
0.0
 11
0.0618976377952756
 21
-0.6436889763779528
 31
0.0
 11
0.0606259842519685
 21
-0.6420354330708662
 31
0.0
 11
0.0594015748031496
 21
-0.6404724409448819
 31
0.0
 11
0.0582007874015748
 21
-0.6389566929133859
 31
0.0
 11
0.0570236220472441
 21
-0.637507874015748
 31
0.0
 11
0.0558582677165354
 21
-0.6361102362204725
 31
0.0
 11
0.0547165354330709
 21
-0.6347795275590551
 31
0.0
 11
0.0535787401574803
 21
-0.633496062992126
 31
0.0
 11
0.0524645669291339
 21
-0.6322755905511811
 31
0.0
 11
0.0513622047244095
 21
-0.6311141732283465
 31
0.0
 11
0.0502834645669291
 21
-0.6300157480314961
 31
0.0
 11
0.0492086614173228
 21
-0.6289685039370079
 31
0.0
 11
0.0481574803149606
 21
-0.6279803149606299
 31
0.0
 11
0.0471181102362205
 21
-0.6270511811023622
 31
0.0
 11
0.0460984251968504
 21
-0.6261850393700787
 31
0.0
 11
0.0450866141732283
 21
-0.6253700787401575
 31
0.0
 11
0.0440984251968504
 21
-0.6246181102362205
 31
0.0
 11
0.0431220472440945
 21
-0.6239251968503937
 31
0.0
 11
0.0421653543307087
 21
-0.6232952755905512
 31
0.0
 11
0.0412086614173228
 21
-0.6226811023622048
 31
0.0
 11
0.040251968503937
 21
-0.6221023622047244
 31
0.0
 11
0.0392913385826772
 21
-0.6215433070866142
 31
0.0
 11
0.0383346456692913
 21
-0.621011811023622
 31
0.0
 11
0.0373661417322835
 21
-0.620492125984252
 31
0.0
 11
0.0364094488188976
 21
-0.6200078740157481
 31
0.0
 11
0.0354409448818898
 21
-0.6195472440944881
 31
0.0
 11
0.0344803149606299
 21
-0.6191102362204725
 31
0.0
 11
0.033503937007874
 21
-0.6186850393700788
 31
0.0
 11
0.0325354330708661
 21
-0.6182952755905512
 31
0.0
 11
0.0315590551181102
 21
-0.6179212598425197
 31
0.0
 11
0.0305905511811024
 21
-0.6175787401574803
 31
0.0
 11
0.0296102362204724
 21
-0.617248031496063
 31
0.0
 11
0.0286299212598425
 21
-0.6169448818897638
 31
0.0
 11
0.0276456692913386
 21
-0.6166614173228346
 31
0.0
 11
0.0266653543307087
 21
-0.6164133858267716
 31
0.0
 11
0.0259015748031496
 21
-0.6162677165354331
 31
0.0
 11
0.0250905511811024
 21
-0.6161338582677165
 31
0.0
 11
0.0242204724409449
 21
-0.6160078740157481
 31
0.0
 11
0.0232952755905512
 21
-0.6158937007874016
 31
0.0
 11
0.0223070866141732
 21
-0.6157834645669291
 31
0.0
 11
0.0212716535433071
 21
-0.6156889763779527
 31
0.0
 11
0.0201692913385827
 21
-0.6155984251968504
 31
0.0
 11
0.0190196850393701
 21
-0.6155196850393701
 31
0.0
 11
0.0178031496062992
 21
-0.6154448818897638
 31
0.0
 11
0.0165354330708661
 21
-0.6153818897637795
 31
0.0
 11
0.0152047244094488
 21
-0.6153307086614174
 31
0.0
 11
0.0138188976377953
 21
-0.6152913385826772
 31
0.0
 11
0.0123700787401575
 21
-0.615251968503937
 31
0.0
 11
0.0108700787401575
 21
-0.6152322834645669
 31
0.0
 11
0.0093070866141732
 21
-0.6152165354330709
 31
0.0
  0
LINE
  5
89
100
AcDbEntity
  8
0
 62
     0
100
AcDbLine
 10
0.009307
 20
-0.615217
 30
0.0
 11
0.007693
 21
-0.615217
 31
0.0
  0
LINE
  5
8A
100
AcDbEntity
  8
0
 62
     0
100
AcDbLine
 10
0.007693
 20
-0.615217
 30
0.0
 11
-0.031748
 21
-0.615217
 31
0.0
  0
LINE
  5
8B
100
AcDbEntity
  8
0
 62
     0
100
AcDbLine
 10
-0.031748
 20
-0.615217
 30
0.0
 11
-0.031748
 21
-0.729343
 31
0.0
  0
LINE
  5
8C
100
AcDbEntity
  8
0
 62
     0
100
AcDbLine
 10
-0.031748
 20
-0.729343
 30
0.0
 11
-0.06574
 21
-0.729343
 31
0.0
  0
LINE
  5
8D
100
AcDbEntity
  8
0
 62
     0
100
AcDbLine
 10
-0.031748
 20
-0.585772
 30
0.0
 11
0.041386
 21
-0.585772
 31
0.0
  0
SPLINE
  5
8E
100
AcDbEntity
  8
0
 62
     0
100
AcDbSpline
210
0.0
220
0.0
230
1.0
 70
     0
 71
     3
 72
     0
 73
     0
 74
    80
 44
0.0000000001
 11
0.0413858267716535
 21
-0.5857716535433071
 31
0.0
 11
0.044248031496063
 21
-0.585748031496063
 31
0.0
 11
0.0470354330708661
 21
-0.5856929133858267
 31
0.0
 11
0.049744094488189
 21
-0.5855944881889764
 31
0.0
 11
0.0523858267716535
 21
-0.5854645669291339
 31
0.0
 11
0.0549370078740157
 21
-0.5852913385826771
 31
0.0
 11
0.0574173228346457
 21
-0.5850826771653543
 31
0.0
 11
0.0598149606299213
 21
-0.5848385826771654
 31
0.0
 11
0.0621417322834646
 21
-0.5845590551181102
 31
0.0
 11
0.0643779527559055
 21
-0.5842322834645669
 31
0.0
 11
0.0665393700787402
 21
-0.5838740157480316
 31
0.0
 11
0.0686220472440945
 21
-0.5834763779527559
 31
0.0
 11
0.0706259842519685
 21
-0.5830433070866142
 31
0.0
 11
0.0725433070866142
 21
-0.5825669291338582
 31
0.0
 11
0.0743897637795276
 21
-0.5820551181102363
 31
0.0
 11
0.0761496062992126
 21
-0.581507874015748
 31
0.0
 11
0.0778346456692913
 21
-0.5809251968503937
 31
0.0
 11
0.0794527559055118
 21
-0.5802913385826771
 31
0.0
 11
0.0810275590551181
 21
-0.5796181102362205
 31
0.0
 11
0.0825472440944882
 21
-0.5788976377952756
 31
0.0
 11
0.0840236220472441
 21
-0.5781377952755905
 31
0.0
 11
0.0854409448818898
 21
-0.5773267716535433
 31
0.0
 11
0.0868188976377953
 21
-0.5764763779527559
 31
0.0
 11
0.0881417322834646
 21
-0.5755787401574803
 31
0.0
 11
0.0894173228346457
 21
-0.5746377952755906
 31
0.0
 11
0.0906338582677165
 21
-0.5736456692913385
 31
0.0
 11
0.0918110236220472
 21
-0.5726141732283464
 31
0.0
 11
0.0929330708661417
 21
-0.5715393700787401
 31
0.0
 11
0.094011811023622
 21
-0.5704173228346456
 31
0.0
 11
0.0950314960629921
 21
-0.569248031496063
 31
0.0
 11
0.0960118110236221
 21
-0.5680393700787402
 31
0.0
 11
0.0969370078740158
 21
-0.5667834645669292
 31
0.0
 11
0.0978228346456693
 21
-0.5654842519685039
 31
0.0
 11
0.0986417322834646
 21
-0.5641456692913386
 31
0.0
 11
0.0994173228346457
 21
-0.5628031496062992
 31
0.0
 11
0.1001299212598425
 21
-0.5614409448818898
 31
0.0
 11
0.1007992125984252
 21
-0.5600708661417323
 31
0.0
 11
0.1014055118110236
 21
-0.5586771653543308
 31
0.0
 11
0.1019685039370079
 21
-0.5572755905511811
 31
0.0
 11
0.1024763779527559
 21
-0.5558582677165355
 31
0.0
 11
0.1029370078740158
 21
-0.5544330708661417
 31
0.0
 11
0.1033307086614173
 21
-0.5529803149606299
 31
0.0
 11
0.1036811023622047
 21
-0.5515196850393701
 31
0.0
 11
0.1039685039370079
 21
-0.5500433070866142
 31
0.0
 11
0.1042125984251969
 21
-0.5485551181102363
 31
0.0
 11
0.1043937007874016
 21
-0.5470472440944882
 31
0.0
 11
0.1045314960629921
 21
-0.5455275590551181
 31
0.0
 11
0.1046141732283465
 21
-0.543992125984252
 31
0.0
 11
0.1046456692913386
 21
-0.5424448818897638
 31
0.0
 11
0.1045905511811024
 21
-0.5401889763779527
 31
0.0
 11
0.1044370078740158
 21
-0.537984251968504
 31
0.0
 11
0.1041771653543307
 21
-0.5358307086614174
 31
0.0
 11
0.1038188976377953
 21
-0.5337322834645669
 31
0.0
 11
0.1033503937007874
 21
-0.5316771653543307
 31
0.0
 11
0.1027874015748032
 21
-0.5296771653543307
 31
0.0
 11
0.1021181102362205
 21
-0.5277283464566929
 31
0.0
 11
0.1013503937007874
 21
-0.5258307086614174
 31
0.0
 11
0.1004685039370079
 21
-0.5239763779527559
 31
0.0
 11
0.099492125984252
 21
-0.5221811023622047
 31
0.0
 11
0.0984015748031496
 21
-0.5204330708661418
 31
0.0
 11
0.0972165354330709
 21
-0.518740157480315
 31
0.0
 11
0.0959212598425197
 21
-0.5170905511811024
 31
0.0
 11
0.0945236220472441
 21
-0.515496062992126
 31
0.0
 11
0.0930196850393701
 21
-0.5139488188976378
 31
0.0
 11
0.0914173228346457
 21
-0.5124606299212599
 31
0.0
 11
0.0897047244094488
 21
-0.5110314960629921
 31
0.0
 11
0.0878740157480315
 21
-0.5097007874015748
 31
0.0
 11
0.0859212598425197
 21
-0.5084606299212598
 31
0.0
 11
0.0838543307086614
 21
-0.5073149606299212
 31
0.0
 11
0.0816574803149606
 21
-0.506255905511811
 31
0.0
 11
0.0793464566929134
 21
-0.5052992125984253
 31
0.0
 11
0.0769133858267717
 21
-0.5044251968503937
 31
0.0
 11
0.0743622047244095
 21
-0.5036535433070866
 31
0.0
 11
0.0716811023622047
 21
-0.5029606299212599
 31
0.0
 11
0.0688858267716535
 21
-0.5023700787401575
 31
0.0
 11
0.0659685039370079
 21
-0.5018622047244095
 31
0.0
 11
0.0629370078740158
 21
-0.5014566929133858
 31
0.0
 11
0.0597716535433071
 21
-0.5011338582677165
 31
0.0
 11
0.0565
 21
-0.5009094488188977
 31
0.0
 11
0.0530984251968504
 21
-0.5007716535433071
 31
0.0
  0
LINE
  5
8F
100
AcDbEntity
  8
0
 62
     0
100
AcDbLine
 10
0.053098
 20
-0.500772
 30
0.0
 11
0.049587
 21
-0.500732
 31
0.0
  0
LINE
  5
90
100
AcDbEntity
  8
0
 62
     0
100
AcDbLine
 10
0.049587
 20
-0.500732
 30
0.0
 11
-0.031748
 21
-0.500732
 31
0.0
  0
LINE
  5
91
100
AcDbEntity
  8
0
 62
     0
100
AcDbLine
 10
-0.031748
 20
-0.500732
 30
0.0
 11
-0.031748
 21
-0.585772
 31
0.0
  0
LINE
  5
92
100
AcDbEntity
  8
0
 62
     0
100
AcDbLine
 10
0.29352
 20
-0.729343
 30
0.0
 11
0.29352
 21
-0.472303
 31
0.0
  0
LINE
  5
93
100
AcDbEntity
  8
0
 62
     0
100
AcDbLine
 10
0.29352
 20
-0.472303
 30
0.0
 11
0.479346
 21
-0.472303
 31
0.0
  0
LINE
  5
94
100
AcDbEntity
  8
0
 62
     0
100
AcDbLine
 10
0.479346
 20
-0.472303
 30
0.0
 11
0.479346
 21
-0.502646
 31
0.0
  0
LINE
  5
95
100
AcDbEntity
  8
0
 62
     0
100
AcDbLine
 10
0.479346
 20
-0.502646
 30
0.0
 11
0.327512
 21
-0.502646
 31
0.0
  0
LINE
  5
96
100
AcDbEntity
  8
0
 62
     0
100
AcDbLine
 10
0.327512
 20
-0.502646
 30
0.0
 11
0.327512
 21
-0.581343
 31
0.0
  0
LINE
  5
97
100
AcDbEntity
  8
0
 62
     0
100
AcDbLine
 10
0.327512
 20
-0.581343
 30
0.0
 11
0.469713
 21
-0.581343
 31
0.0
  0
LINE
  5
98
100
AcDbEntity
  8
0
 62
     0
100
AcDbLine
 10
0.469713
 20
-0.581343
 30
0.0
 11
0.469713
 21
-0.611508
 31
0.0
  0
LINE
  5
99
100
AcDbEntity
  8
0
 62
     0
100
AcDbLine
 10
0.469713
 20
-0.611508
 30
0.0
 11
0.327512
 21
-0.611508
 31
0.0
  0
LINE
  5
9A
100
AcDbEntity
  8
0
 62
     0
100
AcDbLine
 10
0.327512
 20
-0.611508
 30
0.0
 11
0.327512
 21
-0.699
 31
0.0
  0
LINE
  5
9B
100
AcDbEntity
  8
0
 62
     0
100
AcDbLine
 10
0.327512
 20
-0.699
 30
0.0
 11
0.485331
 21
-0.699
 31
0.0
  0
LINE
  5
9C
100
AcDbEntity
  8
0
 62
     0
100
AcDbLine
 10
0.485331
 20
-0.699
 30
0.0
 11
0.485331
 21
-0.729343
 31
0.0
  0
LINE
  5
9D
100
AcDbEntity
  8
0
 62
     0
100
AcDbLine
 10
0.485331
 20
-0.729343
 30
0.0
 11
0.29352
 21
-0.729343
 31
0.0
  0
LINE
  5
9E
100
AcDbEntity
  8
0
 62
     0
100
AcDbLine
 10
0.815449
 20
-0.639217
 30
0.0
 11
0.849504
 21
-0.647831
 31
0.0
  0
SPLINE
  5
9F
100
AcDbEntity
  8
0
 62
     0
100
AcDbSpline
210
0.0
220
0.0
230
1.0
 70
     0
 71
     3
 72
     0
 73
     0
 74
   160
 44
0.0000000001
 11
0.849503937007874
 21
-0.6478307086614173
 31
0.0
 11
0.8480944881889764
 21
-0.6529763779527559
 31
0.0
 11
0.8465590551181103
 21
-0.6579763779527559
 31
0.0
 11
0.8448858267716536
 21
-0.6628188976377952
 31
0.0
 11
0.8430826771653543
 21
-0.667511811023622
 31
0.0
 11
0.8411417322834646
 21
-0.6720433070866142
 31
0.0
 11
0.8390669291338583
 21
-0.6764212598425197
 31
0.0
 11
0.8368582677165355
 21
-0.6806456692913386
 31
0.0
 11
0.8345236220472441
 21
-0.6847244094488189
 31
0.0
 11
0.8320472440944882
 21
-0.6886377952755906
 31
0.0
 11
0.8294409448818898
 21
-0.6924015748031496
 31
0.0
 11
0.8266968503937008
 21
-0.6960118110236221
 31
0.0
 11
0.8238307086614173
 21
-0.6994685039370079
 31
0.0
 11
0.8208228346456693
 21
-0.702767716535433
 31
0.0
 11
0.8176850393700788
 21
-0.7059133858267717
 31
0.0
 11
0.8144173228346456
 21
-0.7089055118110236
 31
0.0
 11
0.8110196850393701
 21
-0.711748031496063
 31
0.0
 11
0.807488188976378
 21
-0.7144055118110236
 31
0.0
 11
0.8038661417322834
 21
-0.7168976377952756
 31
0.0
 11
0.8001456692913386
 21
-0.7192125984251968
 31
0.0
 11
0.7963385826771654
 21
-0.7213622047244095
 31
0.0
 11
0.7924212598425197
 21
-0.7233267716535433
 31
0.0
 11
0.7884173228346457
 21
-0.7251299212598426
 31
0.0
 11
0.7843149606299212
 21
-0.7267598425196851
 31
0.0
 11
0.7801220472440945
 21
-0.7282244094488189
 31
0.0
 11
0.7758228346456693
 21
-0.729503937007874
 31
0.0
 11
0.7714330708661418
 21
-0.7306220472440945
 31
0.0
 11
0.7669409448818898
 21
-0.7315629921259843
 31
0.0
 11
0.7623582677165355
 21
-0.7323385826771653
 31
0.0
 11
0.7576692913385826
 21
-0.7329330708661417
 31
0.0
 11
0.7528897637795275
 21
-0.7333661417322834
 31
0.0
 11
0.7480078740157481
 21
-0.7336220472440945
 31
0.0
 11
0.7430354330708662
 21
-0.7337125984251969
 31
0.0
 11
0.7378976377952756
 21
-0.7336417322834645
 31
0.0
 11
0.7328818897637796
 21
-0.7334448818897638
 31
0.0
 11
0.727992125984252
 21
-0.7331102362204724
 31
0.0
 11
0.7232244094488189
 21
-0.7326535433070867
 31
0.0
 11
0.7185748031496063
 21
-0.7320551181102363
 31
0.0
 11
0.7140511811023622
 21
-0.7313307086614174
 31
0.0
 11
0.7096456692913385
 21
-0.7304724409448818
 31
0.0
 11
0.7053661417322835
 21
-0.7294881889763779
 31
0.0
 11
0.7012007874015748
 21
-0.7283622047244095
 31
0.0
 11
0.6971614173228347
 21
-0.7271102362204724
 31
0.0
 11
0.693240157480315
 21
-0.7257244094488189
 31
0.0
 11
0.6894448818897638
 21
-0.7242125984251968
 31
0.0
 11
0.6857677165354331
 21
-0.7225629921259843
 31
0.0
 11
0.6822125984251969
 21
-0.7207834645669291
 31
0.0
 11
0.6787755905511811
 21
-0.7188740157480315
 31
0.0
 11
0.6754685039370079
 21
-0.7168346456692913
 31
0.0
 11
0.672255905511811
 21
-0.7146496062992126
 31
0.0
 11
0.6691456692913386
 21
-0.7123543307086614
 31
0.0
 11
0.6661338582677165
 21
-0.7099330708661418
 31
0.0
 11
0.6632204724409448
 21
-0.7074055118110236
 31
0.0
 11
0.6603976377952756
 21
-0.704748031496063
 31
0.0
 11
0.6576811023622047
 21
-0.7019842519685039
 31
0.0
 11
0.6550590551181102
 21
-0.6990944881889764
 31
0.0
 11
0.6525354330708661
 21
-0.6960944881889764
 31
0.0
 11
0.6501023622047244
 21
-0.6929645669291339
 31
0.0
 11
0.6477716535433071
 21
-0.6897283464566929
 31
0.0
 11
0.6455393700787402
 21
-0.6863740157480315
 31
0.0
 11
0.6434055118110236
 21
-0.6829015748031496
 31
0.0
 11
0.6413661417322835
 21
-0.6793031496062992
 31
0.0
 11
0.6394291338582677
 21
-0.6755944881889764
 31
0.0
 11
0.6375866141732284
 21
-0.6717677165354331
 31
0.0
 11
0.6358503937007874
 21
-0.6678228346456693
 31
0.0
 11
0.6342047244094489
 21
-0.6637795275590551
 31
0.0
 11
0.6326653543307087
 21
-0.6597086614173229
 31
0.0
 11
0.631232283464567
 21
-0.6556023622047245
 31
0.0
 11
0.6299094488188977
 21
-0.6514606299212599
 31
0.0
 11
0.6286850393700787
 21
-0.6472755905511811
 31
0.0
 11
0.6275708661417323
 21
-0.6430551181102362
 31
0.0
 11
0.6265629921259842
 21
-0.6387992125984252
 31
0.0
 11
0.6256653543307087
 21
-0.634515748031496
 31
0.0
 11
0.6248661417322835
 21
-0.6301850393700788
 31
0.0
 11
0.6241771653543307
 21
-0.6258188976377953
 31
0.0
 11
0.6235905511811024
 21
-0.6214173228346457
 31
0.0
 11
0.6231141732283465
 21
-0.6169842519685039
 31
0.0
 11
0.622740157480315
 21
-0.612507874015748
 31
0.0
 11
0.6224763779527559
 21
-0.608
 31
0.0
 11
0.6223149606299213
 21
-0.6034566929133858
 31
0.0
 11
0.6222637795275591
 21
-0.5988779527559055
 31
0.0
 11
0.6223228346456693
 21
-0.5938976377952756
 31
0.0
 11
0.6225000000000001
 21
-0.589
 31
0.0
 11
0.6227952755905512
 21
-0.5841811023622048
 31
0.0
 11
0.6232125984251968
 21
-0.5794488188976378
 31
0.0
 11
0.623744094488189
 21
-0.5747913385826772
 31
0.0
 11
0.6244055118110237
 21
-0.5702165354330708
 31
0.0
 11
0.6251850393700787
 21
-0.5657204724409449
 31
0.0
 11
0.6260826771653544
 21
-0.5613070866141733
 31
0.0
 11
0.6270984251968504
 21
-0.5569685039370079
 31
0.0
 11
0.6282322834645669
 21
-0.5527125984251968
 31
0.0
 11
0.6294842519685039
 21
-0.5485354330708662
 31
0.0
 11
0.6308661417322835
 21
-0.5444409448818898
 31
0.0
 11
0.6323622047244094
 21
-0.5404212598425197
 31
0.0
 11
0.6339803149606299
 21
-0.5364842519685039
 31
0.0
 11
0.6357165354330708
 21
-0.5326299212598425
 31
0.0
 11
0.6375826771653543
 21
-0.5288582677165354
 31
0.0
 11
0.6395511811023622
 21
-0.5251732283464567
 31
0.0
 11
0.6416220472440944
 21
-0.5216062992125984
 31
0.0
 11
0.6437913385826771
 21
-0.5181456692913385
 31
0.0
 11
0.6460629921259843
 21
-0.5148031496062993
 31
0.0
 11
0.6484330708661418
 21
-0.5115669291338583
 31
0.0
 11
0.6509133858267716
 21
-0.5084488188976378
 31
0.0
 11
0.653488188976378
 21
-0.5054409448818897
 31
0.0
 11
0.6561732283464566
 21
-0.5025551181102362
 31
0.0
 11
0.6589488188976378
 21
-0.4997677165354331
 31
0.0
 11
0.6618307086614174
 21
-0.4970984251968504
 31
0.0
 11
0.6648149606299213
 21
-0.4945354330708661
 31
0.0
 11
0.6679015748031496
 21
-0.4920944881889764
 31
0.0
 11
0.6710866141732284
 21
-0.489755905511811
 31
0.0
 11
0.6743818897637796
 21
-0.4875354330708662
 31
0.0
 11
0.677771653543307
 21
-0.4854251968503937
 31
0.0
 11
0.6812716535433071
 21
-0.4834370078740157
 31
0.0
 11
0.6848228346456693
 21
-0.4815511811023622
 31
0.0
 11
0.6884251968503937
 21
-0.4797913385826771
 31
0.0
 11
0.6920708661417323
 21
-0.4781535433070866
 31
0.0
 11
0.6957677165354331
 21
-0.4766417322834646
 31
0.0
 11
0.6995
 21
-0.475248031496063
 31
0.0
 11
0.7032834645669291
 21
-0.4739763779527559
 31
0.0
 11
0.7071102362204724
 21
-0.4728267716535433
 31
0.0
 11
0.7109842519685039
 21
-0.4717992125984252
 31
0.0
 11
0.7148937007874016
 21
-0.4708897637795276
 31
0.0
 11
0.7188582677165354
 21
-0.4701023622047244
 31
0.0
 11
0.7228622047244094
 21
-0.4694409448818898
 31
0.0
 11
0.7269173228346457
 21
-0.4688976377952756
 31
0.0
 11
0.7310078740157481
 21
-0.4684724409448819
 31
0.0
 11
0.7351535433070866
 21
-0.4681732283464567
 31
0.0
 11
0.7393346456692913
 21
-0.467996062992126
 31
0.0
 11
0.7435748031496063
 21
-0.4679370078740158
 31
0.0
 11
0.7483464566929133
 21
-0.468007874015748
 31
0.0
 11
0.7530275590551181
 21
-0.468236220472441
 31
0.0
 11
0.7576102362204724
 21
-0.4686181102362205
 31
0.0
 11
0.7620984251968505
 21
-0.4691574803149606
 31
0.0
 11
0.76648031496063
 21
-0.4698425196850394
 31
0.0
 11
0.7707795275590551
 21
-0.4706850393700787
 31
0.0
 11
0.7749724409448819
 21
-0.4716811023622047
 31
0.0
 11
0.7790826771653543
 21
-0.4728346456692913
 31
0.0
 11
0.7830866141732283
 21
-0.4741299212598426
 31
0.0
 11
0.786996062992126
 21
-0.4755866141732283
 31
0.0
 11
0.7908110236220473
 21
-0.4771968503937008
 31
0.0
 11
0.7945314960629921
 21
-0.4789645669291339
 31
0.0
 11
0.7981456692913386
 21
-0.4808818897637796
 31
0.0
 11
0.8016771653543308
 21
-0.4829566929133858
 31
0.0
 11
0.8051062992125985
 21
-0.4851811023622047
 31
0.0
 11
0.8084488188976378
 21
-0.4875669291338582
 31
0.0
 11
0.8116653543307086
 21
-0.4900826771653543
 31
0.0
 11
0.8147677165354331
 21
-0.4927244094488189
 31
0.0
 11
0.817744094488189
 21
-0.495488188976378
 31
0.0
 11
0.8205984251968505
 21
-0.4983818897637795
 31
0.0
 11
0.8233188976377953
 21
-0.5013937007874015
 31
0.0
 11
0.8259212598425197
 21
-0.5045354330708661
 31
0.0
 11
0.8283937007874016
 21
-0.5077952755905512
 31
0.0
 11
0.830751968503937
 21
-0.5111889763779528
 31
0.0
 11
0.8329724409448819
 21
-0.5146968503937008
 31
0.0
 11
0.8350748031496063
 21
-0.5183346456692913
 31
0.0
 11
0.8370511811023622
 21
-0.5220984251968504
 31
0.0
 11
0.8389094488188976
 21
-0.525988188976378
 31
0.0
 11
0.8406338582677165
 21
-0.53
 31
0.0
 11
0.842240157480315
 21
-0.5341417322834646
 31
0.0
 11
0.8437165354330709
 21
-0.5384055118110236
 31
0.0
  0
LINE
  5
A0
100
AcDbEntity
  8
0
 62
     0
100
AcDbLine
 10
0.843717
 20
-0.538406
 30
0.0
 11
0.845075
 21
-0.542803
 31
0.0
  0
LINE
  5
A1
100
AcDbEntity
  8
0
 62
     0
100
AcDbLine
 10
0.845075
 20
-0.542803
 30
0.0
 11
0.811618
 21
-0.550705
 31
0.0
  0
SPLINE
  5
A2
100
AcDbEntity
  8
0
 62
     0
100
AcDbSpline
210
0.0
220
0.0
230
1.0
 70
     0
 71
     3
 72
     0
 73
     0
 74
   161
 44
0.0000000001
 11
0.8116181102362204
 21
-0.5507047244094488
 31
0.0
 11
0.8104606299212599
 21
-0.5472480314960629
 31
0.0
 11
0.809248031496063
 21
-0.5439173228346457
 31
0.0
 11
0.8079685039370079
 21
-0.5407047244094488
 31
0.0
 11
0.8066299212598426
 21
-0.5376141732283465
 31
0.0
 11
0.8052244094488189
 21
-0.5346377952755905
 31
0.0
 11
0.8037637795275591
 21
-0.5317874015748032
 31
0.0
 11
0.8022362204724409
 21
-0.5290590551181102
 31
0.0
 11
0.8006496062992126
 21
-0.5264488188976378
 31
0.0
 11
0.798992125984252
 21
-0.5239527559055118
 31
0.0
 11
0.7972795275590551
 21
-0.5215787401574803
 31
0.0
 11
0.7954960629921259
 21
-0.5193228346456693
 31
0.0
 11
0.7936574803149606
 21
-0.5171850393700788
 31
0.0
 11
0.791748031496063
 21
-0.5151653543307087
 31
0.0
 11
0.7897795275590551
 21
-0.5132637795275591
 31
0.0
 11
0.7877440944881889
 21
-0.51148031496063
 31
0.0
 11
0.7856456692913386
 21
-0.5098267716535433
 31
0.0
 11
0.7834842519685039
 21
-0.5082677165354331
 31
0.0
 11
0.7812598425196851
 21
-0.5068149606299213
 31
0.0
 11
0.7789685039370079
 21
-0.5054606299212598
 31
0.0
 11
0.7766062992125984
 21
-0.5042125984251968
 31
0.0
 11
0.7741732283464567
 21
-0.5030590551181102
 31
0.0
 11
0.7716732283464567
 21
-0.502007874015748
 31
0.0
 11
0.7691023622047244
 21
-0.5010590551181102
 31
0.0
 11
0.7664685039370078
 21
-0.5002125984251968
 31
0.0
 11
0.7637598425196851
 21
-0.4994566929133859
 31
0.0
 11
0.7609842519685039
 21
-0.4988070866141732
 31
0.0
 11
0.7581377952755906
 21
-0.498259842519685
 31
0.0
 11
0.7552204724409449
 21
-0.4978149606299213
 31
0.0
 11
0.7522322834645669
 21
-0.4974606299212598
 31
0.0
 11
0.7491771653543307
 21
-0.4972125984251968
 31
0.0
 11
0.7460472440944882
 21
-0.4970669291338583
 31
0.0
 11
0.7428582677165354
 21
-0.4970196850393701
 31
0.0
 11
0.7391889763779528
 21
-0.4970708661417323
 31
0.0
 11
0.7356023622047244
 21
-0.4972362204724409
 31
0.0
 11
0.7320905511811023
 21
-0.4975118110236221
 31
0.0
 11
0.7286574803149606
 21
-0.4979055118110236
 31
0.0
 11
0.7252992125984252
 21
-0.4983976377952756
 31
0.0
 11
0.722015748031496
 21
-0.499007874015748
 31
0.0
 11
0.7188110236220473
 21
-0.4997283464566929
 31
0.0
 11
0.7156850393700788
 21
-0.5005629921259842
 31
0.0
 11
0.7126259842519686
 21
-0.5015
 31
0.0
 11
0.7096496062992126
 21
-0.5025511811023622
 31
0.0
 11
0.706744094488189
 21
-0.5037125984251969
 31
0.0
 11
0.7039212598425196
 21
-0.5049921259842519
 31
0.0
 11
0.7011692913385826
 21
-0.5063740157480315
 31
0.0
 11
0.6984921259842519
 21
-0.5078740157480315
 31
0.0
 11
0.6958897637795276
 21
-0.50948031496063
 31
0.0
 11
0.6933661417322835
 21
-0.5112047244094489
 31
0.0
 11
0.6909133858267716
 21
-0.5130236220472441
 31
0.0
 11
0.6885629921259843
 21
-0.5149173228346456
 31
0.0
 11
0.6862992125984252
 21
-0.5168858267716535
 31
0.0
 11
0.6841377952755906
 21
-0.5189330708661417
 31
0.0
 11
0.6820590551181103
 21
-0.5210511811023623
 31
0.0
 11
0.6800787401574803
 21
-0.523248031496063
 31
0.0
 11
0.6781889763779527
 21
-0.5255196850393701
 31
0.0
 11
0.6764015748031496
 21
-0.5278700787401575
 31
0.0
 11
0.6746929133858268
 21
-0.5302874015748031
 31
0.0
 11
0.6730866141732284
 21
-0.5327834645669292
 31
0.0
 11
0.6715708661417323
 21
-0.5353582677165354
 31
0.0
 11
0.6701535433070867
 21
-0.5380118110236221
 31
0.0
 11
0.6688188976377952
 21
-0.540736220472441
 31
0.0
 11
0.6675905511811023
 21
-0.5435393700787402
 31
0.0
 11
0.6664527559055118
 21
-0.5464212598425197
 31
0.0
 11
0.6654133858267717
 21
-0.5493858267716536
 31
0.0
 11
0.6644291338582677
 21
-0.5523700787401575
 31
0.0
 11
0.663515748031496
 21
-0.5553779527559055
 31
0.0
 11
0.6626574803149606
 21
-0.5583937007874016
 31
0.0
 11
0.6618740157480315
 21
-0.5614251968503937
 31
0.0
 11
0.6611456692913386
 21
-0.5644645669291338
 31
0.0
 11
0.6604842519685039
 21
-0.5675196850393701
 31
0.0
 11
0.6598858267716535
 21
-0.5705826771653544
 31
0.0
 11
0.6593543307086615
 21
-0.5736614173228346
 31
0.0
 11
0.6588740157480315
 21
-0.576748031496063
 31
0.0
 11
0.6584645669291339
 21
-0.5798503937007874
 31
0.0
 11
0.6581141732283464
 21
-0.5829606299212599
 31
0.0
 11
0.6578346456692913
 21
-0.5860866141732284
 31
0.0
 11
0.6576102362204724
 21
-0.5892204724409449
 31
0.0
 11
0.6574566929133858
 21
-0.5923700787401575
 31
0.0
 11
0.6573622047244094
 21
-0.5955275590551181
 31
0.0
 11
0.6573346456692913
 21
-0.5987007874015748
 31
0.0
 11
0.6573700787401575
 21
-0.602767716535433
 31
0.0
 11
0.65748031496063
 21
-0.6067716535433071
 31
0.0
 11
0.6576653543307086
 21
-0.6107125984251969
 31
0.0
 11
0.6579251968503938
 21
-0.6145866141732284
 31
0.0
 11
0.658255905511811
 21
-0.6183897637795276
 31
0.0
 11
0.6586653543307086
 21
-0.6221338582677165
 31
0.0
 11
0.6591496062992126
 21
-0.6258070866141733
 31
0.0
 11
0.6597086614173229
 21
-0.6294212598425197
 31
0.0
 11
0.6603346456692913
 21
-0.6329606299212598
 31
0.0
 11
0.6610433070866142
 21
-0.6364409448818897
 31
0.0
 11
0.6618228346456693
 21
-0.6398543307086614
 31
0.0
 11
0.6626811023622047
 21
-0.6432086614173228
 31
0.0
 11
0.6636102362204724
 21
-0.646492125984252
 31
0.0
 11
0.6646141732283465
 21
-0.6497165354330708
 31
0.0
 11
0.6656929133858268
 21
-0.6528740157480315
 31
0.0
 11
0.6668503937007874
 21
-0.6559724409448819
 31
0.0
 11
0.6680866141732283
 21
-0.6589724409448819
 31
0.0
 11
0.6694055118110236
 21
-0.6618779527559056
 31
0.0
 11
0.6708070866141732
 21
-0.6646889763779528
 31
0.0
 11
0.6722992125984252
 21
-0.6674133858267717
 31
0.0
 11
0.6738661417322834
 21
-0.6700275590551181
 31
0.0
 11
0.6755157480314961
 21
-0.6725551181102363
 31
0.0
 11
0.6772480314960629
 21
-0.674984251968504
 31
0.0
 11
0.6790708661417323
 21
-0.6773228346456693
 31
0.0
 11
0.6809645669291339
 21
-0.6795551181102362
 31
0.0
 11
0.6829448818897638
 21
-0.6816968503937008
 31
0.0
 11
0.685007874015748
 21
-0.6837401574803149
 31
0.0
 11
0.6871614173228346
 21
-0.6856968503937008
 31
0.0
 11
0.6893897637795275
 21
-0.6875472440944882
 31
0.0
 11
0.6917086614173228
 21
-0.6893070866141733
 31
0.0
 11
0.6941062992125985
 21
-0.6909645669291339
 31
0.0
 11
0.6965944881889764
 21
-0.6925354330708662
 31
0.0
 11
0.6991299212598425
 21
-0.694
 31
0.0
 11
0.7016929133858267
 21
-0.6953700787401574
 31
0.0
 11
0.7042795275590551
 21
-0.6966456692913385
 31
0.0
 11
0.7068937007874016
 21
-0.6978307086614173
 31
0.0
 11
0.7095275590551181
 21
-0.6989173228346457
 31
0.0
 11
0.7121929133858268
 21
-0.6999094488188976
 31
0.0
 11
0.7148858267716536
 21
-0.7008070866141732
 31
0.0
 11
0.7176062992125984
 21
-0.7016102362204725
 31
0.0
 11
0.7203464566929134
 21
-0.7023110236220472
 31
0.0
 11
0.7231141732283465
 21
-0.7029251968503937
 31
0.0
 11
0.7259094488188976
 21
-0.7034448818897637
 31
0.0
 11
0.728732283464567
 21
-0.7038700787401575
 31
0.0
 11
0.7315787401574804
 21
-0.7042007874015748
 31
0.0
 11
0.7344527559055118
 21
-0.7044370078740158
 31
0.0
 11
0.7373543307086614
 21
-0.7045787401574803
 31
0.0
 11
0.7402834645669292
 21
-0.7046259842519685
 31
0.0
 11
0.7438149606299213
 21
-0.7045590551181102
 31
0.0
 11
0.7472795275590551
 21
-0.7043661417322835
 31
0.0
 11
0.7506732283464567
 21
-0.7040393700787402
 31
0.0
 11
0.7540039370078741
 21
-0.7035905511811024
 31
0.0
 11
0.7572637795275591
 21
-0.7030078740157481
 31
0.0
 11
0.7604527559055118
 21
-0.7023031496062993
 31
0.0
 11
0.7635748031496064
 21
-0.7014645669291338
 31
0.0
 11
0.7666338582677166
 21
-0.7005039370078741
 31
0.0
 11
0.7696181102362205
 21
-0.6994055118110236
 31
0.0
 11
0.7725354330708661
 21
-0.6981850393700787
 31
0.0
 11
0.7753858267716536
 21
-0.6968307086614173
 31
0.0
 11
0.7781732283464568
 21
-0.6953582677165354
 31
0.0
 11
0.7808897637795276
 21
-0.693748031496063
 31
0.0
 11
0.7835393700787402
 21
-0.692015748031496
 31
0.0
 11
0.7861220472440945
 21
-0.6901535433070866
 31
0.0
 11
0.7886377952755905
 21
-0.6881692913385826
 31
0.0
 11
0.7910629921259843
 21
-0.6860354330708661
 31
0.0
 11
0.7933897637795275
 21
-0.6837834645669292
 31
0.0
 11
0.7956141732283465
 21
-0.6814015748031496
 31
0.0
 11
0.797748031496063
 21
-0.6789055118110237
 31
0.0
 11
0.799771653543307
 21
-0.6762755905511811
 31
0.0
 11
0.8016968503937008
 21
-0.6735314960629921
 31
0.0
 11
0.8035196850393701
 21
-0.6706535433070866
 31
0.0
 11
0.805251968503937
 21
-0.6676614173228347
 31
0.0
 11
0.8068700787401575
 21
-0.6645314960629921
 31
0.0
 11
0.8083937007874016
 21
-0.6612874015748032
 31
0.0
 11
0.8098149606299213
 21
-0.6579133858267716
 31
0.0
 11
0.8111456692913386
 21
-0.6544251968503937
 31
0.0
 11
0.8123661417322835
 21
-0.6508031496062993
 31
0.0
 11
0.813496062992126
 21
-0.6470669291338582
 31
0.0
 11
0.8145157480314961
 21
-0.6431968503937008
 31
0.0
 11
0.8154488188976378
 21
-0.6392165354330709
 31
0.0
  0
SPLINE
  5
A3
100
AcDbEntity
  8
0
 62
     0
100
AcDbSpline
210
0.0
220
0.0
230
1.0
 70
     0
 71
     3
 72
     0
 73
     0
 74
   176
 44
0.0000000001
 11
0.9808070866141733
 21
-0.6041456692913386
 31
0.0
 11
0.9809370078740157
 21
-0.596251968503937
 31
0.0
 11
0.9813385826771653
 21
-0.5885748031496063
 31
0.0
 11
0.9820078740157481
 21
-0.5811181102362205
 31
0.0
 11
0.9829488188976377
 21
-0.5738818897637795
 31
0.0
 11
0.9841496062992126
 21
-0.5668543307086614
 31
0.0
 11
0.9856259842519685
 21
-0.5600511811023622
 31
0.0
 11
0.9873700787401575
 21
-0.5534645669291338
 31
0.0
 11
0.9893858267716535
 21
-0.5470984251968504
 31
0.0
 11
0.9916614173228346
 21
-0.5409409448818898
 31
0.0
 11
0.9942125984251968
 21
-0.535003937007874
 31
0.0
 11
0.9970314960629921
 21
-0.5292874015748031
 31
0.0
 11
1.0001220472440946
 21
-0.5237913385826771
 31
0.0
 11
1.0034724409448819
 21
-0.518503937007874
 31
0.0
 11
1.0070984251968504
 21
-0.5134370078740157
 31
0.0
 11
1.010992125984252
 21
-0.5085905511811024
 31
0.0
 11
1.0151614173228347
 21
-0.5039645669291338
 31
0.0
 11
1.0195314960629922
 21
-0.4995748031496063
 31
0.0
 11
1.0240629921259843
 21
-0.4954763779527559
 31
0.0
 11
1.0287440944881889
 21
-0.4916574803149607
 31
0.0
 11
1.0335905511811023
 21
-0.4881259842519685
 31
0.0
 11
1.0385866141732283
 21
-0.4848661417322835
 31
0.0
 11
1.0437440944881891
 21
-0.4819015748031496
 31
0.0
 11
1.0490551181102363
 21
-0.4792086614173228
 31
0.0
 11
1.0545275590551182
 21
-0.4768110236220473
 31
0.0
 11
1.0601456692913387
 21
-0.4746850393700787
 31
0.0
 11
1.0659291338582677
 21
-0.4728425196850394
 31
0.0
 11
1.0718622047244095
 21
-0.4712834645669292
 31
0.0
 11
1.0779645669291338
 21
-0.470015748031496
 31
0.0
 11
1.0842125984251969
 21
-0.4690236220472441
 31
0.0
 11
1.0906220472440944
 21
-0.4683149606299213
 31
0.0
 11
1.0971850393700788
 21
-0.4678897637795276
 31
0.0
 11
1.1039133858267716
 21
-0.467755905511811
 31
0.0
 11
1.1083228346456693
 21
-0.4678188976377953
 31
0.0
 11
1.1126889763779528
 21
-0.4680196850393701
 31
0.0
 11
1.1169960629921261
 21
-0.4683503937007874
 31
0.0
 11
1.121255905511811
 21
-0.4688188976377953
 31
0.0
 11
1.1254527559055119
 21
-0.4694133858267717
 31
0.0
 11
1.1296023622047244
 21
-0.4701456692913386
 31
0.0
 11
1.1336929133858267
 21
-0.4710118110236221
 31
0.0
 11
1.137740157480315
 21
-0.4720118110236221
 31
0.0
 11
1.1417204724409449
 21
-0.4731377952755906
 31
0.0
 11
1.1456496062992125
 21
-0.4743976377952756
 31
0.0
 11
1.149523622047244
 21
-0.4757874015748032
 31
0.0
 11
1.1533464566929135
 21
-0.4773188976377953
 31
0.0
 11
1.1571062992125984
 21
-0.4789763779527559
 31
0.0
 11
1.1608149606299212
 21
-0.4807677165354331
 31
0.0
 11
1.164468503937008
 21
-0.4826889763779528
 31
0.0
 11
1.1680708661417323
 21
-0.484751968503937
 31
0.0
 11
1.1715826771653544
 21
-0.4869330708661417
 31
0.0
 11
1.174992125984252
 21
-0.4892204724409449
 31
0.0
 11
1.1782913385826772
 21
-0.4916102362204725
 31
0.0
 11
1.1814960629921261
 21
-0.4941062992125984
 31
0.0
 11
1.1845866141732284
 21
-0.4967007874015748
 31
0.0
 11
1.1875787401574802
 21
-0.4994094488188977
 31
0.0
 11
1.1904566929133857
 21
-0.5022165354330709
 31
0.0
 11
1.1932401574803149
 21
-0.5051338582677165
 31
0.0
 11
1.1959055118110236
 21
-0.5081456692913385
 31
0.0
 11
1.1984724409448819
 21
-0.5112677165354331
 31
0.0
 11
1.2009291338582677
 21
-0.514496062992126
 31
0.0
 11
1.2032874015748032
 21
-0.5178307086614173
 31
0.0
 11
1.2055275590551182
 21
-0.5212637795275591
 31
0.0
 11
1.2076692913385827
 21
-0.5248031496062993
 31
0.0
 11
1.2097047244094488
 21
-0.5284488188976378
 31
0.0
 11
1.2116377952755906
 21
-0.5322086614173228
 31
0.0
 11
1.2134448818897638
 21
-0.5360275590551181
 31
0.0
 11
1.2151456692913385
 21
-0.5399212598425197
 31
0.0
 11
1.216724409448819
 21
-0.5438740157480315
 31
0.0
 11
1.2181889763779528
 21
-0.5479015748031496
 31
0.0
 11
1.2195314960629922
 21
-0.5519803149606299
 31
0.0
 11
1.2207598425196851
 21
-0.5561338582677166
 31
0.0
 11
1.2218700787401575
 21
-0.5603503937007874
 31
0.0
 11
1.2228661417322835
 21
-0.5646338582677165
 31
0.0
 11
1.2237401574803151
 21
-0.5689724409448819
 31
0.0
 11
1.224496062992126
 21
-0.5733818897637796
 31
0.0
 11
1.2251338582677165
 21
-0.5778503937007874
 31
0.0
 11
1.2256653543307086
 21
-0.5823897637795276
 31
0.0
 11
1.2260708661417323
 21
-0.58698031496063
 31
0.0
 11
1.2263661417322835
 21
-0.5916417322834646
 31
0.0
 11
1.2265433070866141
 21
-0.5963622047244095
 31
0.0
 11
1.2266023622047244
 21
-0.6011535433070866
 31
0.0
 11
1.2265354330708662
 21
-0.6060078740157481
 31
0.0
 11
1.2263543307086615
 21
-0.6108031496062992
 31
0.0
 11
1.2260472440944883
 21
-0.6155314960629922
 31
0.0
 11
1.2256220472440944
 21
-0.6202007874015748
 31
0.0
 11
1.2250669291338583
 21
-0.6247992125984252
 31
0.0
 11
1.2243937007874015
 21
-0.6293346456692913
 31
0.0
 11
1.2235905511811023
 21
-0.6338070866141732
 31
0.0
 11
1.2226771653543307
 21
-0.6382165354330709
 31
0.0
 11
1.2216259842519686
 21
-0.6425511811023622
 31
0.0
 11
1.2204645669291339
 21
-0.6468267716535433
 31
0.0
 11
1.2191692913385828
 21
-0.6510393700787401
 31
0.0
 11
1.2177598425196849
 21
-0.6551889763779527
 31
0.0
 11
1.216216535433071
 21
-0.6592637795275591
 31
0.0
 11
1.2145551181102363
 21
-0.6632795275590552
 31
0.0
 11
1.212763779527559
 21
-0.6672283464566929
 31
0.0
 11
1.2108582677165354
 21
-0.6711141732283464
 31
0.0
 11
1.2088267716535432
 21
-0.6749055118110237
 31
0.0
 11
1.2066968503937008
 21
-0.6785905511811023
 31
0.0
 11
1.2044645669291338
 21
-0.6821574803149606
 31
0.0
 11
1.2021338582677166
 21
-0.6856062992125984
 31
0.0
 11
1.1996929133858267
 21
-0.6889370078740158
 31
0.0
 11
1.1971574803149607
 21
-0.6921496062992126
 31
0.0
 11
1.1945157480314961
 21
-0.695244094488189
 31
0.0
 11
1.191779527559055
 21
-0.698228346456693
 31
0.0
 11
1.1889291338582677
 21
-0.7010866141732284
 31
0.0
 11
1.185984251968504
 21
-0.7038307086614173
 31
0.0
 11
1.1829291338582677
 21
-0.7064527559055118
 31
0.0
 11
1.1797834645669292
 21
-0.7089685039370078
 31
0.0
 11
1.1765236220472441
 21
-0.7113622047244095
 31
0.0
 11
1.1731692913385827
 21
-0.7136417322834646
 31
0.0
 11
1.1697086614173229
 21
-0.7158031496062992
 31
0.0
 11
1.1661535433070866
 21
-0.7178503937007874
 31
0.0
 11
1.162507874015748
 21
-0.719767716535433
 31
0.0
 11
1.1588346456692913
 21
-0.7215669291338582
 31
0.0
 11
1.1551220472440944
 21
-0.723236220472441
 31
0.0
 11
1.1513818897637795
 21
-0.7247913385826772
 31
0.0
 11
1.1475984251968503
 21
-0.7262125984251968
 31
0.0
 11
1.1437913385826772
 21
-0.72751968503937
 31
0.0
 11
1.1399448818897637
 21
-0.7286929133858268
 31
0.0
 11
1.1360669291338583
 21
-0.729751968503937
 31
0.0
 11
1.1321456692913385
 21
-0.7306732283464567
 31
0.0
 11
1.1281929133858268
 21
-0.7314803149606299
 31
0.0
 11
1.1242047244094489
 21
-0.7321574803149606
 31
0.0
 11
1.1201850393700787
 21
-0.7327204724409449
 31
0.0
 11
1.1161220472440945
 21
-0.7331496062992126
 31
0.0
 11
1.1120275590551181
 21
-0.7334645669291339
 31
0.0
 11
1.1078976377952756
 21
-0.7336456692913386
 31
0.0
 11
1.103736220472441
 21
-0.7337125984251969
 31
0.0
 11
1.099216535433071
 21
-0.7336417322834645
 31
0.0
 11
1.0947637795275591
 21
-0.7334330708661417
 31
0.0
 11
1.0903700787401576
 21
-0.7330905511811023
 31
0.0
 11
1.0860433070866142
 21
-0.7326181102362205
 31
0.0
 11
1.0817716535433071
 21
-0.732
 31
0.0
 11
1.0775708661417323
 21
-0.731248031496063
 31
0.0
 11
1.0734212598425197
 21
-0.7303622047244095
 31
0.0
 11
1.0693425196850395
 21
-0.7293385826771653
 31
0.0
 11
1.0653149606299213
 21
-0.7281692913385827
 31
0.0
 11
1.0613543307086615
 21
-0.7268700787401575
 31
0.0
 11
1.0574488188976379
 21
-0.7254291338582677
 31
0.0
 11
1.0536102362204725
 21
-0.7238582677165354
 31
0.0
 11
1.0498267716535432
 21
-0.7221417322834646
 31
0.0
 11
1.0461102362204724
 21
-0.7202913385826771
 31
0.0
 11
1.0424527559055119
 21
-0.7183031496062993
 31
0.0
 11
1.0388582677165354
 21
-0.7161771653543307
 31
0.0
 11
1.0353267716535433
 21
-0.7139330708661418
 31
0.0
 11
1.0319133858267717
 21
-0.7115944881889764
 31
0.0
 11
1.0286023622047245
 21
-0.7091535433070866
 31
0.0
 11
1.0254094488188976
 21
-0.7066141732283464
 31
0.0
 11
1.0223188976377953
 21
-0.7039685039370078
 31
0.0
 11
1.0193425196850394
 21
-0.701228346456693
 31
0.0
 11
1.0164685039370078
 21
-0.6983858267716535
 31
0.0
 11
1.0137125984251969
 21
-0.6954448818897638
 31
0.0
 11
1.0110551181102363
 21
-0.6923976377952756
 31
0.0
 11
1.008511811023622
 21
-0.689255905511811
 31
0.0
 11
1.0060748031496063
 21
-0.686007874015748
 31
0.0
 11
1.0037519685039371
 21
-0.6826692913385827
 31
0.0
 11
1.0015314960629922
 21
-0.6792204724409449
 31
0.0
 11
0.9994251968503937
 21
-0.6756811023622047
 31
0.0
 11
0.9974212598425197
 21
-0.6720354330708661
 31
0.0
 11
0.9955314960629921
 21
-0.6682992125984252
 31
0.0
 11
0.993740157480315
 21
-0.6644960629921259
 31
0.0
 11
0.9920748031496063
 21
-0.6606692913385827
 31
0.0
 11
0.9905157480314961
 21
-0.6568110236220472
 31
0.0
 11
0.9890826771653544
 21
-0.6529330708661417
 31
0.0
 11
0.987755905511811
 21
-0.6490157480314961
 31
0.0
 11
0.9865511811023622
 21
-0.6450787401574804
 31
0.0
 11
0.9854566929133858
 21
-0.6411102362204725
 31
0.0
 11
0.984484251968504
 21
-0.6371181102362205
 31
0.0
 11
0.9836141732283464
 21
-0.6330866141732283
 31
0.0
 11
0.9828700787401575
 21
-0.6290354330708662
 31
0.0
 11
0.9822322834645669
 21
-0.6249488188976378
 31
0.0
 11
0.9817204724409449
 21
-0.6208464566929134
 31
0.0
 11
0.9813149606299213
 21
-0.6167047244094488
 31
0.0
 11
0.9810314960629921
 21
-0.6125472440944882
 31
0.0
 11
0.9808582677165354
 21
-0.6083543307086614
 31
0.0
  0
SPLINE
  5
A4
100
AcDbEntity
  8
0
 62
     0
100
AcDbSpline
210
0.0
220
0.0
230
1.0
 70
     0
 71
     3
 72
     0
 73
     0
 74
   145
 44
0.0000000001
 11
1.0158779527559054
 21
-0.6046850393700788
 31
0.0
 11
1.0159724409448818
 21
-0.6104133858267716
 31
0.0
 11
1.016267716535433
 21
-0.615992125984252
 31
0.0
 11
1.016751968503937
 21
-0.6214173228346457
 31
0.0
 11
1.0174370078740158
 21
-0.6266889763779527
 31
0.0
 11
1.0183110236220472
 21
-0.6317992125984252
 31
0.0
 11
1.0193858267716536
 21
-0.6367559055118111
 31
0.0
 11
1.0206496062992125
 21
-0.6415590551181103
 31
0.0
 11
1.0221141732283465
 21
-0.6462165354330709
 31
0.0
 11
1.0237677165354331
 21
-0.6507086614173229
 31
0.0
 11
1.0256220472440944
 21
-0.6550511811023622
 31
0.0
 11
1.0276653543307086
 21
-0.6592362204724409
 31
0.0
 11
1.0299094488188976
 21
-0.6632716535433071
 31
0.0
 11
1.0323425196850393
 21
-0.6671496062992126
 31
0.0
 11
1.0349763779527559
 21
-0.6708779527559056
 31
0.0
 11
1.0378070866141733
 21
-0.6744488188976378
 31
0.0
 11
1.0408346456692914
 21
-0.6778740157480315
 31
0.0
 11
1.0440118110236221
 21
-0.6811102362204724
 31
0.0
 11
1.047287401574803
 21
-0.6841377952755906
 31
0.0
 11
1.0506653543307087
 21
-0.6869606299212598
 31
0.0
 11
1.0541417322834645
 21
-0.6895748031496063
 31
0.0
 11
1.0577125984251969
 21
-0.6919724409448819
 31
0.0
 11
1.0613858267716536
 21
-0.6941692913385826
 31
0.0
 11
1.0651535433070867
 21
-0.6961535433070866
 31
0.0
 11
1.0690275590551181
 21
-0.6979330708661418
 31
0.0
 11
1.0729921259842519
 21
-0.699496062992126
 31
0.0
 11
1.0770590551181103
 21
-0.7008543307086614
 31
0.0
 11
1.081228346456693
 21
-0.702003937007874
 31
0.0
 11
1.085496062992126
 21
-0.7029488188976378
 31
0.0
 11
1.0898582677165354
 21
-0.7036811023622047
 31
0.0
 11
1.0943228346456693
 21
-0.7042047244094488
 31
0.0
 11
1.0988897637795276
 21
-0.7045196850393701
 31
0.0
 11
1.1035551181102363
 21
-0.7046259842519685
 31
0.0
 11
1.1082992125984252
 21
-0.7045196850393701
 31
0.0
 11
1.1129448818897638
 21
-0.7042007874015748
 31
0.0
 11
1.1174763779527559
 21
-0.7036732283464567
 31
0.0
 11
1.1219094488188976
 21
-0.7029409448818897
 31
0.0
 11
1.1262283464566929
 21
-0.701992125984252
 31
0.0
 11
1.1304488188976378
 21
-0.7008346456692913
 31
0.0
 11
1.1345551181102362
 21
-0.6994645669291338
 31
0.0
 11
1.1385629921259843
 21
-0.6978858267716536
 31
0.0
 11
1.1424527559055118
 21
-0.6960905511811024
 31
0.0
 11
1.1462401574803149
 21
-0.6940905511811024
 31
0.0
 11
1.1499212598425197
 21
-0.6918700787401575
 31
0.0
 11
1.1535039370078741
 21
-0.6894488188976378
 31
0.0
 11
1.1569724409448818
 21
-0.6868110236220473
 31
0.0
 11
1.1603385826771653
 21
-0.6839645669291339
 31
0.0
 11
1.1635944881889764
 21
-0.6809055118110237
 31
0.0
 11
1.1667519685039369
 21
-0.6776338582677165
 31
0.0
 11
1.1697480314960631
 21
-0.6741653543307087
 31
0.0
 11
1.1725590551181102
 21
-0.6705236220472441
 31
0.0
 11
1.1751692913385827
 21
-0.6667007874015748
 31
0.0
 11
1.1775984251968503
 21
-0.6627047244094488
 31
0.0
 11
1.1798228346456694
 21
-0.6585275590551181
 31
0.0
 11
1.1818661417322835
 21
-0.6541811023622047
 31
0.0
 11
1.1837086614173229
 21
-0.6496535433070866
 31
0.0
 11
1.1853622047244095
 21
-0.6449566929133859
 31
0.0
 11
1.1868149606299212
 21
-0.6400708661417323
 31
0.0
 11
1.1880787401574804
 21
-0.6350196850393701
 31
0.0
 11
1.1891456692913387
 21
-0.6297834645669291
 31
0.0
 11
1.1900275590551181
 21
-0.6243779527559055
 31
0.0
 11
1.1907047244094489
 21
-0.6187874015748032
 31
0.0
 11
1.1911968503937007
 21
-0.6130275590551181
 31
0.0
 11
1.191488188976378
 21
-0.6070826771653544
 31
0.0
 11
1.1915905511811025
 21
-0.6009724409448819
 31
0.0
 11
1.1915433070866142
 21
-0.5970787401574803
 31
0.0
 11
1.1914173228346456
 21
-0.5932559055118111
 31
0.0
 11
1.1912086614173227
 21
-0.5894921259842519
 31
0.0
 11
1.1909173228346457
 21
-0.5857952755905512
 31
0.0
 11
1.1905354330708662
 21
-0.5821535433070866
 31
0.0
 11
1.1900787401574804
 21
-0.5785826771653543
 31
0.0
 11
1.1895314960629921
 21
-0.5750669291338583
 31
0.0
 11
1.1889094488188976
 21
-0.5716181102362204
 31
0.0
 11
1.1881968503937008
 21
-0.5682204724409449
 31
0.0
 11
1.1874094488188975
 21
-0.5648937007874015
 31
0.0
 11
1.186531496062992
 21
-0.5616220472440945
 31
0.0
 11
1.1855787401574802
 21
-0.5584173228346456
 31
0.0
 11
1.1845354330708662
 21
-0.5552677165354331
 31
0.0
 11
1.1834173228346456
 21
-0.5521889763779527
 31
0.0
 11
1.1822165354330709
 21
-0.5491692913385827
 31
0.0
 11
1.1809370078740158
 21
-0.5462125984251969
 31
0.0
 11
1.1795669291338582
 21
-0.5433228346456693
 31
0.0
 11
1.1781259842519685
 21
-0.5405157480314961
 31
0.0
 11
1.1766062992125985
 21
-0.5377913385826771
 31
0.0
 11
1.1750196850393702
 21
-0.5351535433070866
 31
0.0
 11
1.1733464566929135
 21
-0.5325944881889764
 31
0.0
 11
1.1716023622047245
 21
-0.5301220472440945
 31
0.0
 11
1.1697755905511811
 21
-0.5277283464566929
 31
0.0
 11
1.1678818897637795
 21
-0.5254212598425196
 31
0.0
 11
1.1658976377952757
 21
-0.5231850393700788
 31
0.0
 11
1.1638503937007874
 21
-0.5210393700787401
 31
0.0
 11
1.161716535433071
 21
-0.5189763779527559
 31
0.0
 11
1.1595157480314962
 21
-0.517
 31
0.0
 11
1.1572283464566928
 21
-0.5150944881889764
 31
0.0
 11
1.1548740157480315
 21
-0.5132795275590552
 31
0.0
 11
1.1524409448818898
 21
-0.5115393700787402
 31
0.0
 11
1.1499370078740156
 21
-0.5098897637795276
 31
0.0
 11
1.1473543307086613
 21
-0.5083307086614173
 31
0.0
 11
1.1447401574803149
 21
-0.5068740157480315
 31
0.0
 11
1.1420866141732284
 21
-0.505515748031496
 31
0.0
 11
1.1393976377952757
 21
-0.5042637795275591
 31
0.0
 11
1.1366653543307086
 21
-0.5031062992125984
 31
0.0
 11
1.1338976377952756
 21
-0.5020472440944882
 31
0.0
 11
1.1310905511811025
 21
-0.5010905511811024
 31
0.0
 11
1.128248031496063
 21
-0.5002401574803149
 31
0.0
 11
1.1253622047244094
 21
-0.49948031496063
 31
0.0
 11
1.1224409448818897
 21
-0.4988267716535433
 31
0.0
 11
1.1194763779527559
 21
-0.4982716535433071
 31
0.0
 11
1.1164803149606299
 21
-0.4978228346456693
 31
0.0
 11
1.1134409448818898
 21
-0.4974685039370079
 31
0.0
 11
1.1103622047244095
 21
-0.4972204724409449
 31
0.0
 11
1.1072440944881889
 21
-0.4970669291338583
 31
0.0
 11
1.1040944881889765
 21
-0.4970196850393701
 31
0.0
 11
1.0996062992125983
 21
-0.4971141732283465
 31
0.0
 11
1.0952047244094487
 21
-0.4974015748031496
 31
0.0
 11
1.0908779527559056
 21
-0.4978858267716536
 31
0.0
 11
1.0866377952755906
 21
-0.4985669291338583
 31
0.0
 11
1.0824724409448818
 21
-0.4994370078740157
 31
0.0
 11
1.0783897637795277
 21
-0.500503937007874
 31
0.0
 11
1.0743858267716535
 21
-0.501763779527559
 31
0.0
 11
1.0704645669291339
 21
-0.5032204724409449
 31
0.0
 11
1.0666141732283465
 21
-0.5048622047244095
 31
0.0
 11
1.0628503937007874
 21
-0.5067047244094488
 31
0.0
 11
1.0591614173228348
 21
-0.508744094488189
 31
0.0
 11
1.0555551181102363
 21
-0.5109803149606299
 31
0.0
 11
1.0520196850393702
 21
-0.5134015748031496
 31
0.0
 11
1.0485708661417323
 21
-0.5160236220472441
 31
0.0
 11
1.0452007874015747
 21
-0.5188425196850394
 31
0.0
 11
1.0419094488188976
 21
-0.5218582677165354
 31
0.0
 11
1.038751968503937
 21
-0.5250826771653543
 31
0.0
 11
1.0358031496062992
 21
-0.5285669291338583
 31
0.0
 11
1.0330551181102363
 21
-0.5323110236220473
 31
0.0
 11
1.0305157480314961
 21
-0.5363267716535433
 31
0.0
 11
1.0281732283464566
 21
-0.5405905511811023
 31
0.0
 11
1.0260433070866142
 21
-0.5451259842519685
 31
0.0
 11
1.0241102362204724
 21
-0.5499094488188976
 31
0.0
 11
1.0223858267716535
 21
-0.5549645669291339
 31
0.0
 11
1.0208543307086615
 21
-0.5602677165354331
 31
0.0
 11
1.0195354330708661
 21
-0.5658346456692913
 31
0.0
 11
1.0184133858267717
 21
-0.5716574803149607
 31
0.0
 11
1.0175000000000001
 21
-0.5777519685039371
 31
0.0
 11
1.0167834645669291
 21
-0.5840944881889764
 31
0.0
 11
1.016279527559055
 21
-0.5906968503937008
 31
0.0
 11
1.015976377952756
 21
-0.5975590551181103
 31
0.0
 11
1.0158779527559054
 21
-0.6046850393700788
 31
0.0
  0
LINE
  5
A5
100
AcDbEntity
  8
0
 62
     0
100
AcDbLine
 10
1.370772
 20
-0.729343
 30
0.0
 11
1.370772
 21
-0.472303
 31
0.0
  0
LINE
  5
A6
100
AcDbEntity
  8
0
 62
     0
100
AcDbLine
 10
1.370772
 20
-0.472303
 30
0.0
 11
1.48472
 21
-0.472303
 31
0.0
  0
SPLINE
  5
A7
100
AcDbEntity
  8
0
 62
     0
100
AcDbSpline
210
0.0
220
0.0
230
1.0
 70
     0
 71
     3
 72
     0
 73
     0
 74
   112
 44
0.0000000001
 11
1.4847204724409448
 21
-0.4723031496062992
 31
0.0
 11
1.4889488188976379
 21
-0.4723267716535433
 31
0.0
 11
1.4930551181102363
 21
-0.4724094488188976
 31
0.0
 11
1.4970275590551181
 21
-0.4725433070866142
 31
0.0
 11
1.5008740157480316
 21
-0.472736220472441
 31
0.0
 11
1.5045866141732283
 21
-0.4729803149606299
 31
0.0
 11
1.5081811023622047
 21
-0.4732795275590551
 31
0.0
 11
1.5116377952755906
 21
-0.4736299212598426
 31
0.0
 11
1.5149724409448819
 21
-0.4740433070866142
 31
0.0
 11
1.5181692913385827
 21
-0.4745
 31
0.0
 11
1.5212440944881889
 21
-0.4750196850393701
 31
0.0
 11
1.5241811023622047
 21
-0.4755866141732283
 31
0.0
 11
1.5269999999999999
 21
-0.4762125984251969
 31
0.0
 11
1.5296811023622048
 21
-0.4768858267716535
 31
0.0
 11
1.5322401574803151
 21
-0.4776181102362205
 31
0.0
 11
1.5346653543307087
 21
-0.4784055118110236
 31
0.0
 11
1.5369685039370078
 21
-0.479248031496063
 31
0.0
 11
1.5391692913385826
 21
-0.4801496062992126
 31
0.0
 11
1.5413188976377952
 21
-0.4811377952755905
 31
0.0
 11
1.5434094488188976
 21
-0.4822047244094488
 31
0.0
 11
1.5454488188976379
 21
-0.4833582677165355
 31
0.0
 11
1.5474251968503936
 21
-0.4845905511811023
 31
0.0
 11
1.5493503937007873
 21
-0.4859094488188976
 31
0.0
 11
1.5512204724409449
 21
-0.4873110236220473
 31
0.0
 11
1.5530393700787402
 21
-0.4888031496062992
 31
0.0
 11
1.5547913385826773
 21
-0.4903661417322835
 31
0.0
 11
1.5564960629921261
 21
-0.4920157480314961
 31
0.0
 11
1.5581417322834645
 21
-0.493748031496063
 31
0.0
 11
1.5597401574803149
 21
-0.4955708661417323
 31
0.0
 11
1.561275590551181
 21
-0.4974645669291339
 31
0.0
 11
1.5627637795275591
 21
-0.4994488188976378
 31
0.0
 11
1.5641929133858268
 21
-0.5015118110236221
 31
0.0
 11
1.5655748031496064
 21
-0.5036653543307087
 31
0.0
 11
1.5668622047244094
 21
-0.5058740157480315
 31
0.0
 11
1.5680708661417322
 21
-0.5081102362204725
 31
0.0
 11
1.5691968503937008
 21
-0.5103779527559055
 31
0.0
 11
1.5702401574803149
 21
-0.5126811023622048
 31
0.0
 11
1.5711929133858267
 21
-0.5150039370078741
 31
0.0
 11
1.5720669291338583
 21
-0.5173582677165355
 31
0.0
 11
1.5728543307086613
 21
-0.519740157480315
 31
0.0
 11
1.5735669291338583
 21
-0.5221535433070866
 31
0.0
 11
1.5741850393700787
 21
-0.5245866141732284
 31
0.0
 11
1.5747244094488189
 21
-0.5270551181102362
 31
0.0
 11
1.5751811023622047
 21
-0.5295472440944882
 31
0.0
 11
1.5755551181102363
 21
-0.5320748031496063
 31
0.0
 11
1.5758425196850394
 21
-0.5346220472440945
 31
0.0
 11
1.5760511811023623
 21
-0.5372007874015748
 31
0.0
 11
1.5761771653543306
 21
-0.5398070866141732
 31
0.0
 11
1.5762244094488189
 21
-0.5424448818897638
 31
0.0
 11
1.5761535433070866
 21
-0.5458307086614174
 31
0.0
 11
1.5759448818897637
 21
-0.5491496062992126
 31
0.0
 11
1.5755984251968504
 21
-0.5523976377952756
 31
0.0
 11
1.5751181102362204
 21
-0.5555826771653544
 31
0.0
 11
1.5744921259842519
 21
-0.5586929133858267
 31
0.0
 11
1.573736220472441
 21
-0.5617401574803149
 31
0.0
 11
1.5728385826771654
 21
-0.5647165354330709
 31
0.0
 11
1.5718070866141731
 21
-0.5676338582677165
 31
0.0
 11
1.5706299212598425
 21
-0.5704763779527559
 31
0.0
 11
1.5693188976377952
 21
-0.573251968503937
 31
0.0
 11
1.5678661417322834
 21
-0.5759645669291339
 31
0.0
 11
1.5662755905511812
 21
-0.5786102362204725
 31
0.0
 11
1.5645393700787402
 21
-0.5811850393700787
 31
0.0
 11
1.5626692913385827
 21
-0.5836929133858267
 31
0.0
 11
1.5606614173228346
 21
-0.5861377952755905
 31
0.0
 11
1.558511811023622
 21
-0.5885236220472441
 31
0.0
 11
1.556220472440945
 21
-0.5908110236220473
 31
0.0
 11
1.5537834645669291
 21
-0.592996062992126
 31
0.0
 11
1.5511889763779527
 21
-0.5950708661417323
 31
0.0
 11
1.5484527559055119
 21
-0.5970472440944882
 31
0.0
 11
1.5455590551181102
 21
-0.5989094488188976
 31
0.0
 11
1.5425196850393701
 21
-0.6006732283464566
 31
0.0
 11
1.5393228346456693
 21
-0.6023228346456693
 31
0.0
 11
1.5359842519685039
 21
-0.6038740157480315
 31
0.0
 11
1.532484251968504
 21
-0.6053070866141732
 31
0.0
 11
1.5288385826771653
 21
-0.6066377952755906
 31
0.0
 11
1.5250393700787401
 21
-0.6078622047244094
 31
0.0
 11
1.5210984251968505
 21
-0.608988188976378
 31
0.0
 11
1.516996062992126
 21
-0.61
 31
0.0
 11
1.512751968503937
 21
-0.6109055118110236
 31
0.0
 11
1.5083503937007874
 21
-0.6117047244094488
 31
0.0
 11
1.5038110236220472
 21
-0.6124055118110237
 31
0.0
 11
1.5054763779527558
 21
-0.6132086614173229
 31
0.0
 11
1.5070944881889763
 21
-0.614011811023622
 31
0.0
 11
1.5086535433070867
 21
-0.6148149606299213
 31
0.0
 11
1.5101732283464566
 21
-0.6156220472440945
 31
0.0
 11
1.5116299212598425
 21
-0.6164173228346457
 31
0.0
 11
1.5130433070866143
 21
-0.6172204724409449
 31
0.0
 11
1.5144015748031496
 21
-0.6180236220472442
 31
0.0
 11
1.5157125984251969
 21
-0.6188267716535433
 31
0.0
 11
1.5169645669291338
 21
-0.6196181102362205
 31
0.0
 11
1.5181692913385827
 21
-0.6204212598425197
 31
0.0
 11
1.5193188976377954
 21
-0.6212165354330709
 31
0.0
 11
1.5204291338582676
 21
-0.6220196850393701
 31
0.0
 11
1.5214763779527558
 21
-0.6228110236220472
 31
0.0
 11
1.5224803149606299
 21
-0.6236141732283465
 31
0.0
 11
1.5234291338582677
 21
-0.6244094488188976
 31
0.0
 11
1.5243385826771654
 21
-0.6252125984251968
 31
0.0
 11
1.5261889763779528
 21
-0.6269409448818898
 31
0.0
 11
1.5280314960629922
 21
-0.628728346456693
 31
0.0
 11
1.5298582677165353
 21
-0.6305669291338583
 31
0.0
 11
1.5316811023622048
 21
-0.6324645669291339
 31
0.0
 11
1.5334842519685039
 21
-0.6344094488188976
 31
0.0
 11
1.5352834645669291
 21
-0.6364173228346457
 31
0.0
 11
1.5370629921259842
 21
-0.6384724409448819
 31
0.0
 11
1.5388385826771653
 21
-0.6405866141732284
 31
0.0
 11
1.5405944881889764
 21
-0.642748031496063
 31
0.0
 11
1.5423425196850393
 21
-0.6449645669291338
 31
0.0
 11
1.5440748031496063
 21
-0.647232283464567
 31
0.0
 11
1.5458031496062992
 21
-0.6495590551181102
 31
0.0
 11
1.5475118110236221
 21
-0.6519330708661417
 31
0.0
 11
1.5492165354330709
 21
-0.6543622047244094
 31
0.0
 11
1.5509015748031496
 21
-0.6568425196850394
 31
0.0
  0
LINE
  5
A8
100
AcDbEntity
  8
0
 62
     0
100
AcDbLine
 10
1.550902
 20
-0.656843
 30
0.0
 11
1.552587
 21
-0.659382
 31
0.0
  0
LINE
  5
A9
100
AcDbEntity
  8
0
 62
     0
100
AcDbLine
 10
1.552587
 20
-0.659382
 30
0.0
 11
1.597291
 21
-0.729343
 31
0.0
  0
LINE
  5
AA
100
AcDbEntity
  8
0
 62
     0
100
AcDbLine
 10
1.597291
 20
-0.729343
 30
0.0
 11
1.5545
 21
-0.729343
 31
0.0
  0
LINE
  5
AB
100
AcDbEntity
  8
0
 62
     0
100
AcDbLine
 10
1.5545
 20
-0.729343
 30
0.0
 11
1.520508
 21
-0.675839
 31
0.0
  0
SPLINE
  5
AC
100
AcDbEntity
  8
0
 62
     0
100
AcDbSpline
210
0.0
220
0.0
230
1.0
 70
     0
 71
     3
 72
     0
 73
     0
 74
    64
 44
0.0000000001
 11
1.5205078740157481
 21
-0.6758385826771653
 31
0.0
 11
1.5186574803149606
 21
-0.6729881889763779
 31
0.0
 11
1.5168582677165354
 21
-0.670232283464567
 31
0.0
 11
1.5150944881889763
 21
-0.6675551181102363
 31
0.0
 11
1.5133779527559055
 21
-0.6649645669291339
 31
0.0
 11
1.5116929133858268
 21
-0.6624527559055118
 31
0.0
 11
1.5100590551181103
 21
-0.6600314960629922
 31
0.0
 11
1.5084566929133858
 21
-0.6576889763779528
 31
0.0
 11
1.5069055118110237
 21
-0.6554370078740157
 31
0.0
 11
1.5053818897637796
 21
-0.6532598425196851
 31
0.0
 11
1.5039055118110236
 21
-0.6511771653543307
 31
0.0
 11
1.5024685039370078
 21
-0.6491732283464567
 31
0.0
 11
1.5010787401574803
 21
-0.6472637795275591
 31
0.0
 11
1.499720472440945
 21
-0.6454291338582677
 31
0.0
 11
1.4984094488188977
 21
-0.6436889763779528
 31
0.0
 11
1.4971377952755907
 21
-0.6420354330708662
 31
0.0
 11
1.4959133858267717
 21
-0.6404724409448819
 31
0.0
 11
1.4947125984251968
 21
-0.6389566929133859
 31
0.0
 11
1.4935354330708661
 21
-0.637507874015748
 31
0.0
 11
1.4923700787401575
 21
-0.6361102362204725
 31
0.0
 11
1.4912283464566929
 21
-0.6347795275590551
 31
0.0
 11
1.4900905511811025
 21
-0.633496062992126
 31
0.0
 11
1.4889763779527558
 21
-0.6322755905511811
 31
0.0
 11
1.4878740157480315
 21
-0.6311141732283465
 31
0.0
 11
1.4867952755905511
 21
-0.6300157480314961
 31
0.0
 11
1.485720472440945
 21
-0.6289685039370079
 31
0.0
 11
1.4846692913385826
 21
-0.6279803149606299
 31
0.0
 11
1.4836299212598425
 21
-0.6270511811023622
 31
0.0
 11
1.4826102362204725
 21
-0.6261850393700787
 31
0.0
 11
1.4815984251968504
 21
-0.6253700787401575
 31
0.0
 11
1.4806102362204725
 21
-0.6246181102362205
 31
0.0
 11
1.4796338582677164
 21
-0.6239251968503937
 31
0.0
 11
1.4786771653543307
 21
-0.6232952755905512
 31
0.0
 11
1.477720472440945
 21
-0.6226811023622048
 31
0.0
 11
1.476763779527559
 21
-0.6221023622047244
 31
0.0
 11
1.4758031496062991
 21
-0.6215433070866142
 31
0.0
 11
1.4748464566929134
 21
-0.621011811023622
 31
0.0
 11
1.4738779527559056
 21
-0.620492125984252
 31
0.0
 11
1.4729212598425196
 21
-0.6200078740157481
 31
0.0
 11
1.4719527559055119
 21
-0.6195472440944881
 31
0.0
 11
1.470992125984252
 21
-0.6191102362204725
 31
0.0
 11
1.4700157480314962
 21
-0.6186850393700788
 31
0.0
 11
1.4690472440944882
 21
-0.6182952755905512
 31
0.0
 11
1.4680708661417323
 21
-0.6179212598425197
 31
0.0
 11
1.4671023622047243
 21
-0.6175787401574803
 31
0.0
 11
1.4661220472440946
 21
-0.617248031496063
 31
0.0
 11
1.4651417322834646
 21
-0.6169448818897638
 31
0.0
 11
1.4641574803149606
 21
-0.6166614173228346
 31
0.0
 11
1.4631771653543306
 21
-0.6164133858267716
 31
0.0
 11
1.4624133858267716
 21
-0.6162677165354331
 31
0.0
 11
1.4616023622047245
 21
-0.6161338582677165
 31
0.0
 11
1.4607322834645668
 21
-0.6160078740157481
 31
0.0
 11
1.4598070866141732
 21
-0.6158937007874016
 31
0.0
 11
1.4588188976377954
 21
-0.6157834645669291
 31
0.0
 11
1.4577834645669292
 21
-0.6156889763779527
 31
0.0
 11
1.4566811023622048
 21
-0.6155984251968504
 31
0.0
 11
1.4555314960629921
 21
-0.6155196850393701
 31
0.0
 11
1.4543149606299213
 21
-0.6154448818897638
 31
0.0
 11
1.4530472440944882
 21
-0.6153818897637795
 31
0.0
 11
1.4517165354330708
 21
-0.6153307086614174
 31
0.0
 11
1.4503307086614172
 21
-0.6152913385826772
 31
0.0
 11
1.4488818897637796
 21
-0.615251968503937
 31
0.0
 11
1.4473818897637796
 21
-0.6152322834645669
 31
0.0
 11
1.4458188976377953
 21
-0.6152165354330709
 31
0.0
  0
LINE
  5
AD
100
AcDbEntity
  8
0
 62
     0
100
AcDbLine
 10
1.445819
 20
-0.615217
 30
0.0
 11
1.444205
 21
-0.615217
 31
0.0
  0
LINE
  5
AE
100
AcDbEntity
  8
0
 62
     0
100
AcDbLine
 10
1.444205
 20
-0.615217
 30
0.0
 11
1.404764
 21
-0.615217
 31
0.0
  0
LINE
  5
AF
100
AcDbEntity
  8
0
 62
     0
100
AcDbLine
 10
1.404764
 20
-0.615217
 30
0.0
 11
1.404764
 21
-0.729343
 31
0.0
  0
LINE
  5
B0
100
AcDbEntity
  8
0
 62
     0
100
AcDbLine
 10
1.404764
 20
-0.729343
 30
0.0
 11
1.370772
 21
-0.729343
 31
0.0
  0
LINE
  5
B1
100
AcDbEntity
  8
0
 62
     0
100
AcDbLine
 10
1.404764
 20
-0.585772
 30
0.0
 11
1.477898
 21
-0.585772
 31
0.0
  0
SPLINE
  5
B2
100
AcDbEntity
  8
0
 62
     0
100
AcDbSpline
210
0.0
220
0.0
230
1.0
 70
     0
 71
     3
 72
     0
 73
     0
 74
    80
 44
0.0000000001
 11
1.4778976377952755
 21
-0.5857716535433071
 31
0.0
 11
1.4807598425196851
 21
-0.585748031496063
 31
0.0
 11
1.4835472440944881
 21
-0.5856929133858267
 31
0.0
 11
1.486255905511811
 21
-0.5855944881889764
 31
0.0
 11
1.4888976377952756
 21
-0.5854645669291339
 31
0.0
 11
1.4914488188976378
 21
-0.5852913385826771
 31
0.0
 11
1.4939291338582676
 21
-0.5850826771653543
 31
0.0
 11
1.4963267716535433
 21
-0.5848385826771654
 31
0.0
 11
1.4986535433070867
 21
-0.5845590551181102
 31
0.0
 11
1.5008897637795275
 21
-0.5842322834645669
 31
0.0
 11
1.5030511811023621
 21
-0.5838740157480316
 31
0.0
 11
1.5051338582677165
 21
-0.5834763779527559
 31
0.0
 11
1.5071377952755904
 21
-0.5830433070866142
 31
0.0
 11
1.5090551181102363
 21
-0.5825669291338582
 31
0.0
 11
1.5109015748031496
 21
-0.5820551181102363
 31
0.0
 11
1.5126614173228345
 21
-0.581507874015748
 31
0.0
 11
1.5143464566929135
 21
-0.5809251968503937
 31
0.0
 11
1.5159645669291339
 21
-0.5802913385826771
 31
0.0
 11
1.5175393700787401
 21
-0.5796181102362205
 31
0.0
 11
1.5190590551181102
 21
-0.5788976377952756
 31
0.0
 11
1.5205354330708662
 21
-0.5781377952755905
 31
0.0
 11
1.5219527559055117
 21
-0.5773267716535433
 31
0.0
 11
1.5233307086614174
 21
-0.5764763779527559
 31
0.0
 11
1.5246535433070867
 21
-0.5755787401574803
 31
0.0
 11
1.5259291338582677
 21
-0.5746377952755906
 31
0.0
 11
1.5271456692913385
 21
-0.5736456692913385
 31
0.0
 11
1.5283228346456692
 21
-0.5726141732283464
 31
0.0
 11
1.5294448818897637
 21
-0.5715393700787401
 31
0.0
 11
1.530523622047244
 21
-0.5704173228346456
 31
0.0
 11
1.5315433070866142
 21
-0.569248031496063
 31
0.0
 11
1.532523622047244
 21
-0.5680393700787402
 31
0.0
 11
1.5334488188976378
 21
-0.5667834645669292
 31
0.0
 11
1.5343346456692912
 21
-0.5654842519685039
 31
0.0
 11
1.5351535433070866
 21
-0.5641456692913386
 31
0.0
 11
1.5359291338582677
 21
-0.5628031496062992
 31
0.0
 11
1.5366417322834645
 21
-0.5614409448818898
 31
0.0
 11
1.5373110236220473
 21
-0.5600708661417323
 31
0.0
 11
1.5379173228346457
 21
-0.5586771653543308
 31
0.0
 11
1.5384803149606299
 21
-0.5572755905511811
 31
0.0
 11
1.5389881889763779
 21
-0.5558582677165355
 31
0.0
 11
1.5394488188976378
 21
-0.5544330708661417
 31
0.0
 11
1.5398425196850394
 21
-0.5529803149606299
 31
0.0
 11
1.5401929133858268
 21
-0.5515196850393701
 31
0.0
 11
1.5404803149606299
 21
-0.5500433070866142
 31
0.0
 11
1.5407244094488188
 21
-0.5485551181102363
 31
0.0
 11
1.5409055118110235
 21
-0.5470472440944882
 31
0.0
 11
1.5410433070866141
 21
-0.5455275590551181
 31
0.0
 11
1.5411259842519685
 21
-0.543992125984252
 31
0.0
 11
1.5411574803149606
 21
-0.5424448818897638
 31
0.0
 11
1.5411023622047244
 21
-0.5401889763779527
 31
0.0
 11
1.5409488188976377
 21
-0.537984251968504
 31
0.0
 11
1.5406889763779528
 21
-0.5358307086614174
 31
0.0
 11
1.5403307086614173
 21
-0.5337322834645669
 31
0.0
 11
1.5398622047244095
 21
-0.5316771653543307
 31
0.0
 11
1.5392992125984253
 21
-0.5296771653543307
 31
0.0
 11
1.5386299212598424
 21
-0.5277283464566929
 31
0.0
 11
1.5378622047244095
 21
-0.5258307086614174
 31
0.0
 11
1.5369803149606298
 21
-0.5239763779527559
 31
0.0
 11
1.536003937007874
 21
-0.5221811023622047
 31
0.0
 11
1.5349133858267716
 21
-0.5204330708661418
 31
0.0
 11
1.5337283464566929
 21
-0.518740157480315
 31
0.0
 11
1.5324330708661418
 21
-0.5170905511811024
 31
0.0
 11
1.5310354330708662
 21
-0.515496062992126
 31
0.0
 11
1.5295314960629922
 21
-0.5139488188976378
 31
0.0
 11
1.5279291338582677
 21
-0.5124606299212599
 31
0.0
 11
1.5262165354330708
 21
-0.5110314960629921
 31
0.0
 11
1.5243858267716535
 21
-0.5097007874015748
 31
0.0
 11
1.5224330708661418
 21
-0.5084606299212598
 31
0.0
 11
1.5203661417322836
 21
-0.5073149606299212
 31
0.0
 11
1.5181692913385827
 21
-0.506255905511811
 31
0.0
 11
1.5158582677165355
 21
-0.5052992125984253
 31
0.0
 11
1.5134251968503938
 21
-0.5044251968503937
 31
0.0
 11
1.5108740157480316
 21
-0.5036535433070866
 31
0.0
 11
1.5081929133858267
 21
-0.5029606299212599
 31
0.0
 11
1.5053976377952756
 21
-0.5023700787401575
 31
0.0
 11
1.5024803149606298
 21
-0.5018622047244095
 31
0.0
 11
1.4994488188976378
 21
-0.5014566929133858
 31
0.0
 11
1.4962834645669292
 21
-0.5011338582677165
 31
0.0
 11
1.4930118110236221
 21
-0.5009094488188977
 31
0.0
 11
1.4896102362204724
 21
-0.5007716535433071
 31
0.0
  0
LINE
  5
B3
100
AcDbEntity
  8
0
 62
     0
100
AcDbLine
 10
1.48961
 20
-0.500772
 30
0.0
 11
1.486098
 21
-0.500732
 31
0.0
  0
LINE
  5
B4
100
AcDbEntity
  8
0
 62
     0
100
AcDbLine
 10
1.486098
 20
-0.500732
 30
0.0
 11
1.404764
 21
-0.500732
 31
0.0
  0
LINE
  5
B5
100
AcDbEntity
  8
0
 62
     0
100
AcDbLine
 10
1.404764
 20
-0.500732
 30
0.0
 11
1.404764
 21
-0.585772
 31
0.0
  0
LINE
  5
B6
100
AcDbEntity
  8
0
 62
     0
100
AcDbLine
 10
1.729315
 20
-0.729343
 30
0.0
 11
1.729315
 21
-0.472303
 31
0.0
  0
LINE
  5
B7
100
AcDbEntity
  8
0
 62
     0
100
AcDbLine
 10
1.729315
 20
-0.472303
 30
0.0
 11
1.817831
 21
-0.472303
 31
0.0
  0
SPLINE
  5
B8
100
AcDbEntity
  8
0
 62
     0
100
AcDbSpline
210
0.0
220
0.0
230
1.0
 70
     0
 71
     3
 72
     0
 73
     0
 74
   144
 44
0.0000000001
 11
1.8178307086614174
 21
-0.4723031496062992
 31
0.0
 11
1.82151968503937
 21
-0.4723149606299212
 31
0.0
 11
1.8251023622047244
 21
-0.4723582677165354
 31
0.0
 11
1.8285708661417324
 21
-0.4724291338582677
 31
0.0
 11
1.8319330708661417
 21
-0.4725354330708662
 31
0.0
 11
1.8351771653543307
 21
-0.4726653543307087
 31
0.0
 11
1.8383188976377953
 21
-0.4728228346456693
 31
0.0
 11
1.8413425196850395
 21
-0.4730118110236221
 31
0.0
 11
1.8442637795275592
 21
-0.473236220472441
 31
0.0
 11
1.8470669291338582
 21
-0.4734803149606299
 31
0.0
 11
1.849763779527559
 21
-0.473755905511811
 31
0.0
 11
1.8523464566929133
 21
-0.4740629921259842
 31
0.0
 11
1.8548228346456692
 21
-0.4743976377952756
 31
0.0
 11
1.8571850393700788
 21
-0.474755905511811
 31
0.0
 11
1.8594409448818898
 21
-0.4751456692913386
 31
0.0
 11
1.8615787401574804
 21
-0.4755669291338583
 31
0.0
 11
1.8636141732283464
 21
-0.476015748031496
 31
0.0
 11
1.8663425196850394
 21
-0.4766692913385827
 31
0.0
 11
1.8690275590551182
 21
-0.4773976377952756
 31
0.0
 11
1.8716574803149606
 21
-0.4781850393700787
 31
0.0
 11
1.8742440944881891
 21
-0.4790472440944882
 31
0.0
 11
1.876771653543307
 21
-0.4799685039370079
 31
0.0
 11
1.8792598425196851
 21
-0.4809606299212598
 31
0.0
 11
1.8816929133858267
 21
-0.4820118110236221
 31
0.0
 11
1.8840787401574803
 21
-0.4831338582677165
 31
0.0
 11
1.8864055118110237
 21
-0.4843110236220473
 31
0.0
 11
1.8886850393700787
 21
-0.4855590551181103
 31
0.0
 11
1.8909094488188976
 21
-0.4868700787401575
 31
0.0
 11
1.8930944881889764
 21
-0.488248031496063
 31
0.0
 11
1.8952204724409449
 21
-0.4896811023622048
 31
0.0
 11
1.8973031496062993
 21
-0.4911889763779528
 31
0.0
 11
1.8993307086614173
 21
-0.492751968503937
 31
0.0
 11
1.9013149606299213
 21
-0.4943897637795275
 31
0.0
 11
1.9038070866141732
 21
-0.4965748031496063
 31
0.0
 11
1.906224409448819
 21
-0.4988385826771654
 31
0.0
 11
1.9085629921259843
 21
-0.5011771653543307
 31
0.0
 11
1.9108267716535432
 21
-0.5035866141732284
 31
0.0
 11
1.913003937007874
 21
-0.5060669291338583
 31
0.0
 11
1.9151062992125985
 21
-0.5086259842519685
 31
0.0
 11
1.9171299212598425
 21
-0.511259842519685
 31
0.0
 11
1.9190748031496063
 21
-0.5139685039370079
 31
0.0
 11
1.9209330708661416
 21
-0.5167440944881889
 31
0.0
 11
1.9227165354330709
 21
-0.5196023622047244
 31
0.0
 11
1.9244133858267716
 21
-0.5225314960629921
 31
0.0
 11
1.9260393700787402
 21
-0.5255393700787402
 31
0.0
 11
1.9275748031496063
 21
-0.5286181102362205
 31
0.0
 11
1.9290354330708661
 21
-0.5317716535433071
 31
0.0
 11
1.9304133858267716
 21
-0.535003937007874
 31
0.0
 11
1.9317165354330708
 21
-0.5383149606299212
 31
0.0
 11
1.9329370078740158
 21
-0.5416850393700787
 31
0.0
 11
1.9340866141732282
 21
-0.5451181102362205
 31
0.0
 11
1.9351535433070866
 21
-0.5486062992125984
 31
0.0
 11
1.9361456692913386
 21
-0.5521574803149606
 31
0.0
 11
1.9370511811023623
 21
-0.5557637795275591
 31
0.0
 11
1.9378818897637795
 21
-0.5594330708661417
 31
0.0
 11
1.9386299212598426
 21
-0.5631614173228347
 31
0.0
 11
1.9393070866141733
 21
-0.5669566929133858
 31
0.0
 11
1.9398937007874015
 21
-0.5707992125984251
 31
0.0
 11
1.9404094488188977
 21
-0.5747086614173228
 31
0.0
 11
1.9408385826771652
 21
-0.5786732283464567
 31
0.0
 11
1.9411968503937007
 21
-0.5827047244094489
 31
0.0
 11
1.9414685039370079
 21
-0.5867874015748031
 31
0.0
 11
1.9416692913385827
 21
-0.5909370078740157
 31
0.0
 11
1.9417874015748031
 21
-0.5951456692913386
 31
0.0
 11
1.9418307086614173
 21
-0.5994173228346457
 31
0.0
 11
1.9417992125984251
 21
-0.6030433070866141
 31
0.0
 11
1.9417165354330708
 21
-0.6066220472440945
 31
0.0
 11
1.9415787401574802
 21
-0.6101456692913386
 31
0.0
 11
1.9413976377952755
 21
-0.6136259842519685
 31
0.0
 11
1.9411535433070866
 21
-0.6170472440944882
 31
0.0
 11
1.9408582677165354
 21
-0.6204251968503937
 31
0.0
 11
1.940507874015748
 21
-0.623744094488189
 31
0.0
 11
1.9401141732283465
 21
-0.6270196850393701
 31
0.0
 11
1.9396535433070867
 21
-0.6302322834645669
 31
0.0
 11
1.9391456692913387
 21
-0.6333976377952756
 31
0.0
 11
1.9385787401574803
 21
-0.636507874015748
 31
0.0
 11
1.9379645669291339
 21
-0.6395748031496064
 31
0.0
 11
1.9372834645669292
 21
-0.6425787401574803
 31
0.0
 11
1.9365590551181102
 21
-0.6455393700787402
 31
0.0
 11
1.935779527559055
 21
-0.6484448818897638
 31
0.0
 11
1.9349488188976378
 21
-0.6513031496062992
 31
0.0
 11
1.9340748031496062
 21
-0.6540944881889764
 31
0.0
 11
1.9331771653543308
 21
-0.6568307086614174
 31
0.0
 11
1.9322480314960631
 21
-0.6595078740157481
 31
0.0
 11
1.9312952755905513
 21
-0.6621259842519686
 31
0.0
 11
1.9303031496062992
 21
-0.6646771653543308
 31
0.0
 11
1.9292874015748032
 21
-0.6671732283464567
 31
0.0
 11
1.928240157480315
 21
-0.6696062992125984
 31
0.0
 11
1.9271653543307086
 21
-0.671984251968504
 31
0.0
 11
1.9260472440944882
 21
-0.6742913385826772
 31
0.0
 11
1.9249094488188976
 21
-0.6765433070866141
 31
0.0
 11
1.9237362204724409
 21
-0.6787322834645669
 31
0.0
 11
1.9225393700787401
 21
-0.6808661417322834
 31
0.0
 11
1.9213031496062991
 21
-0.6829291338582677
 31
0.0
 11
1.9200393700787401
 21
-0.6849370078740158
 31
0.0
 11
1.9187401574803149
 21
-0.6868818897637795
 31
0.0
 11
1.9174133858267717
 21
-0.6887677165354331
 31
0.0
 11
1.9160629921259842
 21
-0.6905866141732283
 31
0.0
 11
1.9147047244094488
 21
-0.6923661417322835
 31
0.0
 11
1.9133307086614173
 21
-0.6940905511811024
 31
0.0
 11
1.9119448818897637
 21
-0.6957755905511811
 31
0.0
 11
1.9105354330708662
 21
-0.6974015748031496
 31
0.0
 11
1.9091181102362205
 21
-0.6989842519685039
 31
0.0
 11
1.9076771653543307
 21
-0.700511811023622
 31
0.0
 11
1.9062283464566929
 21
-0.702
 31
0.0
 11
1.9047559055118111
 21
-0.7034251968503937
 31
0.0
 11
1.9032716535433072
 21
-0.7048070866141732
 31
0.0
 11
1.901767716535433
 21
-0.7061338582677166
 31
0.0
 11
1.900251968503937
 21
-0.7074212598425197
 31
0.0
 11
1.8987125984251969
 21
-0.7086496062992126
 31
0.0
 11
1.8971653543307088
 21
-0.7098307086614173
 31
0.0
 11
1.8955944881889764
 21
-0.7109606299212599
 31
0.0
 11
1.8940157480314961
 21
-0.7120472440944882
 31
0.0
 11
1.8924094488188976
 21
-0.7130905511811023
 31
0.0
 11
1.890759842519685
 21
-0.7141102362204724
 31
0.0
 11
1.8890708661417324
 21
-0.7150944881889764
 31
0.0
 11
1.8873464566929135
 21
-0.7160511811023622
 31
0.0
 11
1.8855748031496062
 21
-0.7169645669291339
 31
0.0
 11
1.8837598425196851
 21
-0.7178543307086615
 31
0.0
 11
1.8819055118110237
 21
-0.7187086614173228
 31
0.0
 11
1.8800157480314961
 21
-0.7195393700787401
 31
0.0
 11
1.8780748031496064
 21
-0.7203228346456693
 31
0.0
 11
1.8760944881889763
 21
-0.7210866141732284
 31
0.0
 11
1.8740748031496064
 21
-0.7218110236220473
 31
0.0
 11
1.87201968503937
 21
-0.7225118110236221
 31
0.0
 11
1.8699173228346457
 21
-0.7231692913385827
 31
0.0
 11
1.8677795275590552
 21
-0.7238031496062992
 31
0.0
 11
1.8655944881889763
 21
-0.7243976377952756
 31
0.0
 11
1.8633740157480314
 21
-0.7249724409448819
 31
0.0
 11
1.8610944881889764
 21
-0.7255
 31
0.0
 11
1.8587795275590551
 21
-0.726
 31
0.0
 11
1.8564173228346457
 21
-0.7264566929133859
 31
0.0
 11
1.8540236220472441
 21
-0.7268858267716536
 31
0.0
 11
1.8515787401574804
 21
-0.7272755905511811
 31
0.0
 11
1.8491023622047245
 21
-0.7276377952755906
 31
0.0
 11
1.8465826771653544
 21
-0.7279606299212599
 31
0.0
 11
1.8440236220472441
 21
-0.728251968503937
 31
0.0
 11
1.8414212598425197
 21
-0.728503937007874
 31
0.0
 11
1.838779527559055
 21
-0.7287244094488189
 31
0.0
 11
1.8360944881889765
 21
-0.7289094488188976
 31
0.0
 11
1.8333740157480316
 21
-0.7290669291338583
 31
0.0
 11
1.8306062992125984
 21
-0.7291811023622047
 31
0.0
 11
1.8278070866141731
 21
-0.7292716535433071
 31
0.0
 11
1.8249606299212597
 21
-0.7293228346456693
 31
0.0
  0
LINE
  5
B9
100
AcDbEntity
  8
0
 62
     0
100
AcDbLine
 10
1.824961
 20
-0.729323
 30
0.0
 11
1.822079
 21
-0.729343
 31
0.0
  0
LINE
  5
BA
100
AcDbEntity
  8
0
 62
     0
100
AcDbLine
 10
1.822079
 20
-0.729343
 30
0.0
 11
1.729315
 21
-0.729343
 31
0.0
  0
LINE
  5
BB
100
AcDbEntity
  8
0
 62
     0
100
AcDbLine
 10
1.763307
 20
-0.699
 30
0.0
 11
1.818189
 21
-0.699
 31
0.0
  0
SPLINE
  5
BC
100
AcDbEntity
  8
0
 62
     0
100
AcDbSpline
210
0.0
220
0.0
230
1.0
 70
     0
 71
     3
 72
     0
 73
     0
 74
   112
 44
0.0000000001
 11
1.8181889763779528
 21
-0.699
 31
0.0
 11
1.8213149606299213
 21
-0.6989763779527559
 31
0.0
 11
1.8243661417322834
 21
-0.6989212598425197
 31
0.0
 11
1.8273267716535433
 21
-0.6988307086614173
 31
0.0
 11
1.8302125984251969
 21
-0.6987047244094489
 31
0.0
 11
1.8330039370078741
 21
-0.6985354330708662
 31
0.0
 11
1.8357165354330709
 21
-0.6983346456692914
 31
0.0
 11
1.8383425196850394
 21
-0.6980944881889764
 31
0.0
 11
1.8408858267716535
 21
-0.6978228346456693
 31
0.0
 11
1.8433346456692914
 21
-0.6975039370078741
 31
0.0
 11
1.8457007874015747
 21
-0.6971535433070866
 31
0.0
 11
1.84798031496063
 21
-0.6967677165354331
 31
0.0
 11
1.8501811023622048
 21
-0.6963464566929134
 31
0.0
 11
1.8522913385826771
 21
-0.6958818897637795
 31
0.0
 11
1.8543149606299212
 21
-0.6953818897637796
 31
0.0
 11
1.8562519685039369
 21
-0.6948425196850394
 31
0.0
 11
1.8581062992125985
 21
-0.6942716535433071
 31
0.0
 11
1.8598897637795275
 21
-0.6936574803149607
 31
0.0
 11
1.8616259842519685
 21
-0.6930196850393701
 31
0.0
 11
1.8633149606299213
 21
-0.6923464566929134
 31
0.0
 11
1.8649606299212598
 21
-0.6916496062992126
 31
0.0
 11
1.8665551181102362
 21
-0.6909173228346457
 31
0.0
 11
1.8681141732283464
 21
-0.6901614173228347
 31
0.0
 11
1.8696181102362204
 21
-0.6893740157480315
 31
0.0
 11
1.8710826771653544
 21
-0.6885629921259843
 31
0.0
 11
1.8724960629921259
 21
-0.6877086614173228
 31
0.0
 11
1.8738661417322835
 21
-0.6868307086614174
 31
0.0
 11
1.8751889763779528
 21
-0.6859212598425197
 31
0.0
 11
1.8764724409448819
 21
-0.6849881889763779
 31
0.0
 11
1.8777047244094489
 21
-0.6840118110236221
 31
0.0
 11
1.8788976377952755
 21
-0.6830157480314961
 31
0.0
 11
1.8800433070866143
 21
-0.681984251968504
 31
0.0
 11
1.8811456692913386
 21
-0.6809291338582677
 31
0.0
 11
1.8826338582677165
 21
-0.6793858267716535
 31
0.0
 11
1.8840866141732284
 21
-0.6777795275590551
 31
0.0
 11
1.885496062992126
 21
-0.6761102362204724
 31
0.0
 11
1.8868661417322834
 21
-0.6743740157480315
 31
0.0
 11
1.8881889763779527
 21
-0.6725669291338583
 31
0.0
 11
1.889472440944882
 21
-0.6706968503937008
 31
0.0
 11
1.8907125984251969
 21
-0.668759842519685
 31
0.0
 11
1.8919173228346458
 21
-0.6667637795275591
 31
0.0
 11
1.8930708661417324
 21
-0.6646929133858268
 31
0.0
 11
1.8941850393700788
 21
-0.6625590551181102
 31
0.0
 11
1.8952598425196849
 21
-0.6603622047244094
 31
0.0
 11
1.8962952755905511
 21
-0.6581062992125984
 31
0.0
 11
1.8972834645669292
 21
-0.6557795275590551
 31
0.0
 11
1.8982283464566929
 21
-0.6533937007874016
 31
0.0
 11
1.8991338582677166
 21
-0.6509409448818898
 31
0.0
 11
1.8999999999999999
 21
-0.6484291338582677
 31
0.0
 11
1.9008070866141733
 21
-0.6458307086614173
 31
0.0
 11
1.9015748031496063
 21
-0.6431732283464567
 31
0.0
 11
1.9022834645669291
 21
-0.6404488188976378
 31
0.0
 11
1.9029448818897639
 21
-0.6376614173228347
 31
0.0
 11
1.9035472440944883
 21
-0.6348031496062992
 31
0.0
 11
1.9041023622047244
 21
-0.6318779527559055
 31
0.0
 11
1.9046023622047243
 21
-0.6288858267716535
 31
0.0
 11
1.9050590551181101
 21
-0.6258267716535433
 31
0.0
 11
1.9054488188976377
 21
-0.6226968503937008
 31
0.0
 11
1.9057992125984251
 21
-0.6195000000000001
 31
0.0
 11
1.9060866141732284
 21
-0.6162322834645669
 31
0.0
 11
1.9063307086614174
 21
-0.6129015748031496
 31
0.0
 11
1.9065118110236221
 21
-0.6095
 31
0.0
 11
1.9066496062992127
 21
-0.6060275590551181
 31
0.0
 11
1.9067283464566929
 21
-0.602484251968504
 31
0.0
 11
1.906759842519685
 21
-0.5988779527559055
 31
0.0
 11
1.9067047244094488
 21
-0.5939055118110236
 31
0.0
 11
1.9065472440944882
 21
-0.5890866141732284
 31
0.0
 11
1.9062834645669291
 21
-0.5844094488188977
 31
0.0
 11
1.9059251968503936
 21
-0.5798858267716536
 31
0.0
 11
1.9054566929133858
 21
-0.5755039370078741
 31
0.0
 11
1.9048897637795275
 21
-0.5712677165354331
 31
0.0
 11
1.9042165354330709
 21
-0.5671811023622048
 31
0.0
 11
1.9034448818897638
 21
-0.563240157480315
 31
0.0
 11
1.9025629921259843
 21
-0.5594370078740157
 31
0.0
 11
1.9015826771653543
 21
-0.5557834645669292
 31
0.0
 11
1.9004960629921259
 21
-0.5522755905511811
 31
0.0
 11
1.8993110236220472
 21
-0.5489173228346457
 31
0.0
 11
1.8980157480314961
 21
-0.5457007874015748
 31
0.0
 11
1.8966220472440944
 21
-0.5426338582677165
 31
0.0
 11
1.8951259842519685
 21
-0.5397125984251968
 31
0.0
 11
1.8935354330708662
 21
-0.5369370078740158
 31
0.0
 11
1.8918464566929134
 21
-0.5342716535433071
 31
0.0
 11
1.8901220472440945
 21
-0.5317283464566929
 31
0.0
 11
1.8883503937007875
 21
-0.5292952755905512
 31
0.0
 11
1.8865393700787401
 21
-0.5269803149606299
 31
0.0
 11
1.8846771653543306
 21
-0.5247716535433071
 31
0.0
 11
1.8827755905511812
 21
-0.5226811023622048
 31
0.0
 11
1.8808307086614173
 21
-0.5206968503937008
 31
0.0
 11
1.8788464566929133
 21
-0.5188307086614173
 31
0.0
 11
1.8768110236220472
 21
-0.5170708661417323
 31
0.0
 11
1.874732283464567
 21
-0.5154291338582677
 31
0.0
 11
1.8726062992125985
 21
-0.5138937007874016
 31
0.0
 11
1.8704448818897639
 21
-0.5124763779527559
 31
0.0
 11
1.8682322834645668
 21
-0.5111653543307086
 31
0.0
 11
1.8659763779527558
 21
-0.5099685039370079
 31
0.0
 11
1.8636771653543307
 21
-0.5088818897637796
 31
0.0
 11
1.8613385826771653
 21
-0.5079133858267717
 31
0.0
 11
1.8595629921259842
 21
-0.5072637795275591
 31
0.0
 11
1.8576574803149606
 21
-0.5066692913385826
 31
0.0
 11
1.8556220472440945
 21
-0.5061062992125984
 31
0.0
 11
1.8534566929133858
 21
-0.5055944881889763
 31
0.0
 11
1.8511574803149606
 21
-0.5051141732283465
 31
0.0
 11
1.848732283464567
 21
-0.5046850393700787
 31
0.0
 11
1.8461771653543306
 21
-0.5042952755905512
 31
0.0
 11
1.8434921259842521
 21
-0.5039527559055118
 31
0.0
 11
1.8406732283464566
 21
-0.5036377952755906
 31
0.0
 11
1.8377283464566929
 21
-0.5033740157480315
 31
0.0
 11
1.8346496062992126
 21
-0.5031496062992126
 31
0.0
 11
1.8314488188976379
 21
-0.5029685039370079
 31
0.0
 11
1.8281102362204724
 21
-0.5028188976377953
 31
0.0
 11
1.8246535433070865
 21
-0.5027204724409449
 31
0.0
 11
1.8210629921259842
 21
-0.5026614173228347
 31
0.0
  0
LINE
  5
BD
100
AcDbEntity
  8
0
 62
     0
100
AcDbLine
 10
1.821063
 20
-0.502661
 30
0.0
 11
1.81735
 21
-0.502646
 31
0.0
  0
LINE
  5
BE
100
AcDbEntity
  8
0
 62
     0
100
AcDbLine
 10
1.81735
 20
-0.502646
 30
0.0
 11
1.763307
 21
-0.502646
 31
0.0
  0
LINE
  5
BF
100
AcDbEntity
  8
0
 62
     0
100
AcDbLine
 10
1.763307
 20
-0.502646
 30
0.0
 11
1.763307
 21
-0.699
 31
0.0
  0
LINE
  5
C0
100
AcDbEntity
  8
0
 62
     0
100
AcDbLine
 10
2.089114
 20
-0.729343
 30
0.0
 11
2.089114
 21
-0.472303
 31
0.0
  0
LINE
  5
C1
100
AcDbEntity
  8
0
 62
     0
100
AcDbLine
 10
2.089114
 20
-0.472303
 30
0.0
 11
2.274941
 21
-0.472303
 31
0.0
  0
LINE
  5
C2
100
AcDbEntity
  8
0
 62
     0
100
AcDbLine
 10
2.274941
 20
-0.472303
 30
0.0
 11
2.274941
 21
-0.502646
 31
0.0
  0
LINE
  5
C3
100
AcDbEntity
  8
0
 62
     0
100
AcDbLine
 10
2.274941
 20
-0.502646
 30
0.0
 11
2.123106
 21
-0.502646
 31
0.0
  0
LINE
  5
C4
100
AcDbEntity
  8
0
 62
     0
100
AcDbLine
 10
2.123106
 20
-0.502646
 30
0.0
 11
2.123106
 21
-0.581343
 31
0.0
  0
LINE
  5
C5
100
AcDbEntity
  8
0
 62
     0
100
AcDbLine
 10
2.123106
 20
-0.581343
 30
0.0
 11
2.265307
 21
-0.581343
 31
0.0
  0
LINE
  5
C6
100
AcDbEntity
  8
0
 62
     0
100
AcDbLine
 10
2.265307
 20
-0.581343
 30
0.0
 11
2.265307
 21
-0.611508
 31
0.0
  0
LINE
  5
C7
100
AcDbEntity
  8
0
 62
     0
100
AcDbLine
 10
2.265307
 20
-0.611508
 30
0.0
 11
2.123106
 21
-0.611508
 31
0.0
  0
LINE
  5
C8
100
AcDbEntity
  8
0
 62
     0
100
AcDbLine
 10
2.123106
 20
-0.611508
 30
0.0
 11
2.123106
 21
-0.699
 31
0.0
  0
LINE
  5
C9
100
AcDbEntity
  8
0
 62
     0
100
AcDbLine
 10
2.123106
 20
-0.699
 30
0.0
 11
2.280925
 21
-0.699
 31
0.0
  0
LINE
  5
CA
100
AcDbEntity
  8
0
 62
     0
100
AcDbLine
 10
2.280925
 20
-0.699
 30
0.0
 11
2.280925
 21
-0.729343
 31
0.0
  0
LINE
  5
CB
100
AcDbEntity
  8
0
 62
     0
100
AcDbLine
 10
2.280925
 20
-0.729343
 30
0.0
 11
2.089114
 21
-0.729343
 31
0.0
  0
LINE
  5
CC
100
AcDbEntity
  8
0
 62
     0
100
AcDbLine
 10
2.428213
 20
-0.729343
 30
0.0
 11
2.428213
 21
-0.472303
 31
0.0
  0
LINE
  5
CD
100
AcDbEntity
  8
0
 62
     0
100
AcDbLine
 10
2.428213
 20
-0.472303
 30
0.0
 11
2.542161
 21
-0.472303
 31
0.0
  0
SPLINE
  5
CE
100
AcDbEntity
  8
0
 62
     0
100
AcDbSpline
210
0.0
220
0.0
230
1.0
 70
     0
 71
     3
 72
     0
 73
     0
 74
   112
 44
0.0000000001
 11
2.5421614173228346
 21
-0.4723031496062992
 31
0.0
 11
2.5463897637795276
 21
-0.4723267716535433
 31
0.0
 11
2.5504960629921261
 21
-0.4724094488188976
 31
0.0
 11
2.5544685039370081
 21
-0.4725433070866142
 31
0.0
 11
2.5583149606299211
 21
-0.472736220472441
 31
0.0
 11
2.5620275590551183
 21
-0.4729803149606299
 31
0.0
 11
2.5656220472440947
 21
-0.4732795275590551
 31
0.0
 11
2.5690787401574804
 21
-0.4736299212598426
 31
0.0
 11
2.5724133858267715
 21
-0.4740433070866142
 31
0.0
 11
2.5756102362204722
 21
-0.4745
 31
0.0
 11
2.5786850393700789
 21
-0.4750196850393701
 31
0.0
 11
2.5816220472440943
 21
-0.4755866141732283
 31
0.0
 11
2.5844409448818899
 21
-0.4762125984251969
 31
0.0
 11
2.5871220472440943
 21
-0.4768858267716535
 31
0.0
 11
2.5896811023622046
 21
-0.4776181102362205
 31
0.0
 11
2.5921062992125985
 21
-0.4784055118110236
 31
0.0
 11
2.5944094488188978
 21
-0.479248031496063
 31
0.0
 11
2.5966102362204726
 21
-0.4801496062992126
 31
0.0
 11
2.5987598425196849
 21
-0.4811377952755905
 31
0.0
 11
2.6008503937007874
 21
-0.4822047244094488
 31
0.0
 11
2.6028897637795274
 21
-0.4833582677165355
 31
0.0
 11
2.6048661417322836
 21
-0.4845905511811023
 31
0.0
 11
2.6067913385826773
 21
-0.4859094488188976
 31
0.0
 11
2.6086614173228346
 21
-0.4873110236220473
 31
0.0
 11
2.6104803149606299
 21
-0.4888031496062992
 31
0.0
 11
2.612232283464567
 21
-0.4903661417322835
 31
0.0
 11
2.6139370078740156
 21
-0.4920157480314961
 31
0.0
 11
2.6155826771653543
 21
-0.493748031496063
 31
0.0
 11
2.6171811023622049
 21
-0.4955708661417323
 31
0.0
 11
2.6187165354330708
 21
-0.4974645669291339
 31
0.0
 11
2.6202047244094486
 21
-0.4994488188976378
 31
0.0
 11
2.6216338582677166
 21
-0.5015118110236221
 31
0.0
 11
2.623015748031496
 21
-0.5036653543307087
 31
0.0
 11
2.6243031496062992
 21
-0.5058740157480315
 31
0.0
 11
2.625511811023622
 21
-0.5081102362204725
 31
0.0
 11
2.6266377952755904
 21
-0.5103779527559055
 31
0.0
 11
2.6276811023622049
 21
-0.5126811023622048
 31
0.0
 11
2.6286338582677167
 21
-0.5150039370078741
 31
0.0
 11
2.629507874015748
 21
-0.5173582677165355
 31
0.0
 11
2.6302952755905511
 21
-0.519740157480315
 31
0.0
 11
2.6310078740157481
 21
-0.5221535433070866
 31
0.0
 11
2.6316259842519685
 21
-0.5245866141732284
 31
0.0
 11
2.6321653543307089
 21
-0.5270551181102362
 31
0.0
 11
2.6326220472440944
 21
-0.5295472440944882
 31
0.0
 11
2.6329960629921261
 21
-0.5320748031496063
 31
0.0
 11
2.633283464566929
 21
-0.5346220472440945
 31
0.0
 11
2.6334921259842519
 21
-0.5372007874015748
 31
0.0
 11
2.6336181102362204
 21
-0.5398070866141732
 31
0.0
 11
2.6336653543307085
 21
-0.5424448818897638
 31
0.0
 11
2.6335944881889763
 21
-0.5458307086614174
 31
0.0
 11
2.6333858267716534
 21
-0.5491496062992126
 31
0.0
 11
2.6330393700787402
 21
-0.5523976377952756
 31
0.0
 11
2.6325590551181102
 21
-0.5555826771653544
 31
0.0
 11
2.6319330708661419
 21
-0.5586929133858267
 31
0.0
 11
2.6311771653543308
 21
-0.5617401574803149
 31
0.0
 11
2.6302795275590549
 21
-0.5647165354330709
 31
0.0
 11
2.6292480314960631
 21
-0.5676338582677165
 31
0.0
 11
2.6280708661417322
 21
-0.5704763779527559
 31
0.0
 11
2.626759842519685
 21
-0.573251968503937
 31
0.0
 11
2.6253070866141734
 21
-0.5759645669291339
 31
0.0
 11
2.6237165354330707
 21
-0.5786102362204725
 31
0.0
 11
2.6219803149606298
 21
-0.5811850393700787
 31
0.0
 11
2.6201102362204725
 21
-0.5836929133858267
 31
0.0
 11
2.6181023622047244
 21
-0.5861377952755905
 31
0.0
 11
2.615952755905512
 21
-0.5885236220472441
 31
0.0
 11
2.6136614173228345
 21
-0.5908110236220473
 31
0.0
 11
2.6112244094488188
 21
-0.592996062992126
 31
0.0
 11
2.6086299212598427
 21
-0.5950708661417323
 31
0.0
 11
2.6058937007874015
 21
-0.5970472440944882
 31
0.0
 11
2.6030000000000002
 21
-0.5989094488188976
 31
0.0
 11
2.5999606299212599
 21
-0.6006732283464566
 31
0.0
 11
2.5967637795275591
 21
-0.6023228346456693
 31
0.0
 11
2.5934251968503936
 21
-0.6038740157480315
 31
0.0
 11
2.5899251968503938
 21
-0.6053070866141732
 31
0.0
 11
2.5862795275590553
 21
-0.6066377952755906
 31
0.0
 11
2.5824803149606299
 21
-0.6078622047244094
 31
0.0
 11
2.5785393700787402
 21
-0.608988188976378
 31
0.0
 11
2.5744370078740157
 21
-0.61
 31
0.0
 11
2.5701929133858266
 21
-0.6109055118110236
 31
0.0
 11
2.5657913385826774
 21
-0.6117047244094488
 31
0.0
 11
2.561251968503937
 21
-0.6124055118110237
 31
0.0
 11
2.5629173228346458
 21
-0.6132086614173229
 31
0.0
 11
2.5645354330708661
 21
-0.614011811023622
 31
0.0
 11
2.5660944881889765
 21
-0.6148149606299213
 31
0.0
 11
2.5676141732283466
 21
-0.6156220472440945
 31
0.0
 11
2.5690708661417321
 21
-0.6164173228346457
 31
0.0
 11
2.5704842519685038
 21
-0.6172204724409449
 31
0.0
 11
2.5718425196850392
 21
-0.6180236220472442
 31
0.0
 11
2.5731535433070865
 21
-0.6188267716535433
 31
0.0
 11
2.5744055118110238
 21
-0.6196181102362205
 31
0.0
 11
2.5756102362204722
 21
-0.6204212598425197
 31
0.0
 11
2.5767598425196852
 21
-0.6212165354330709
 31
0.0
 11
2.5778700787401574
 21
-0.6220196850393701
 31
0.0
 11
2.5789173228346458
 21
-0.6228110236220472
 31
0.0
 11
2.5799212598425196
 21
-0.6236141732283465
 31
0.0
 11
2.5808700787401575
 21
-0.6244094488188976
 31
0.0
 11
2.5817795275590552
 21
-0.6252125984251968
 31
0.0
 11
2.5836299212598424
 21
-0.6269409448818898
 31
0.0
 11
2.5854724409448817
 21
-0.628728346456693
 31
0.0
 11
2.5872992125984253
 21
-0.6305669291338583
 31
0.0
 11
2.5891220472440946
 21
-0.6324645669291339
 31
0.0
 11
2.5909251968503937
 21
-0.6344094488188976
 31
0.0
 11
2.5927244094488189
 21
-0.6364173228346457
 31
0.0
 11
2.594503937007874
 21
-0.6384724409448819
 31
0.0
 11
2.5962795275590551
 21
-0.6405866141732284
 31
0.0
 11
2.5980354330708662
 21
-0.642748031496063
 31
0.0
 11
2.5997834645669293
 21
-0.6449645669291338
 31
0.0
 11
2.6015157480314959
 21
-0.647232283464567
 31
0.0
 11
2.6032440944881889
 21
-0.6495590551181102
 31
0.0
 11
2.6049527559055119
 21
-0.6519330708661417
 31
0.0
 11
2.6066574803149605
 21
-0.6543622047244094
 31
0.0
 11
2.6083425196850394
 21
-0.6568425196850394
 31
0.0
  0
LINE
  5
CF
100
AcDbEntity
  8
0
 62
     0
100
AcDbLine
 10
2.608343
 20
-0.656843
 30
0.0
 11
2.610028
 21
-0.659382
 31
0.0
  0
LINE
  5
D0
100
AcDbEntity
  8
0
 62
     0
100
AcDbLine
 10
2.610028
 20
-0.659382
 30
0.0
 11
2.654732
 21
-0.729343
 31
0.0
  0
LINE
  5
D1
100
AcDbEntity
  8
0
 62
     0
100
AcDbLine
 10
2.654732
 20
-0.729343
 30
0.0
 11
2.611941
 21
-0.729343
 31
0.0
  0
LINE
  5
D2
100
AcDbEntity
  8
0
 62
     0
100
AcDbLine
 10
2.611941
 20
-0.729343
 30
0.0
 11
2.577949
 21
-0.675839
 31
0.0
  0
SPLINE
  5
D3
100
AcDbEntity
  8
0
 62
     0
100
AcDbSpline
210
0.0
220
0.0
230
1.0
 70
     0
 71
     3
 72
     0
 73
     0
 74
    64
 44
0.0000000001
 11
2.5779488188976378
 21
-0.6758385826771653
 31
0.0
 11
2.5760984251968502
 21
-0.6729881889763779
 31
0.0
 11
2.574299212598425
 21
-0.670232283464567
 31
0.0
 11
2.5725354330708661
 21
-0.6675551181102363
 31
0.0
 11
2.5708188976377953
 21
-0.6649645669291339
 31
0.0
 11
2.5691338582677163
 21
-0.6624527559055118
 31
0.0
 11
2.5674999999999999
 21
-0.6600314960629922
 31
0.0
 11
2.5658976377952758
 21
-0.6576889763779528
 31
0.0
 11
2.5643464566929133
 21
-0.6554370078740157
 31
0.0
 11
2.5628228346456692
 21
-0.6532598425196851
 31
0.0
 11
2.5613464566929132
 21
-0.6511771653543307
 31
0.0
 11
2.5599094488188978
 21
-0.6491732283464567
 31
0.0
 11
2.5585196850393701
 21
-0.6472637795275591
 31
0.0
 11
2.5571614173228348
 21
-0.6454291338582677
 31
0.0
 11
2.5558503937007875
 21
-0.6436889763779528
 31
0.0
 11
2.5545787401574804
 21
-0.6420354330708662
 31
0.0
 11
2.5533543307086615
 21
-0.6404724409448819
 31
0.0
 11
2.5521535433070865
 21
-0.6389566929133859
 31
0.0
 11
2.5509763779527561
 21
-0.637507874015748
 31
0.0
 11
2.549811023622047
 21
-0.6361102362204725
 31
0.0
 11
2.5486692913385829
 21
-0.6347795275590551
 31
0.0
 11
2.5475314960629922
 21
-0.633496062992126
 31
0.0
 11
2.5464173228346456
 21
-0.6322755905511811
 31
0.0
 11
2.5453149606299212
 21
-0.6311141732283465
 31
0.0
 11
2.5442362204724409
 21
-0.6300157480314961
 31
0.0
 11
2.5431614173228345
 21
-0.6289685039370079
 31
0.0
 11
2.5421102362204726
 21
-0.6279803149606299
 31
0.0
 11
2.5410708661417325
 21
-0.6270511811023622
 31
0.0
 11
2.5400511811023621
 21
-0.6261850393700787
 31
0.0
 11
2.5390393700787404
 21
-0.6253700787401575
 31
0.0
 11
2.5380511811023623
 21
-0.6246181102362205
 31
0.0
 11
2.5370748031496064
 21
-0.6239251968503937
 31
0.0
 11
2.5361181102362207
 21
-0.6232952755905512
 31
0.0
 11
2.5351614173228345
 21
-0.6226811023622048
 31
0.0
 11
2.5342047244094488
 21
-0.6221023622047244
 31
0.0
 11
2.5332440944881891
 21
-0.6215433070866142
 31
0.0
 11
2.5322874015748034
 21
-0.621011811023622
 31
0.0
 11
2.5313188976377954
 21
-0.620492125984252
 31
0.0
 11
2.5303622047244096
 21
-0.6200078740157481
 31
0.0
 11
2.5293937007874017
 21
-0.6195472440944881
 31
0.0
 11
2.5284330708661416
 21
-0.6191102362204725
 31
0.0
 11
2.5274566929133857
 21
-0.6186850393700788
 31
0.0
 11
2.5264881889763782
 21
-0.6182952755905512
 31
0.0
 11
2.5255118110236219
 21
-0.6179212598425197
 31
0.0
 11
2.5245433070866143
 21
-0.6175787401574803
 31
0.0
 11
2.5235629921259841
 21
-0.617248031496063
 31
0.0
 11
2.5225826771653543
 21
-0.6169448818897638
 31
0.0
 11
2.5215984251968502
 21
-0.6166614173228346
 31
0.0
 11
2.5206181102362204
 21
-0.6164133858267716
 31
0.0
 11
2.5198543307086614
 21
-0.6162677165354331
 31
0.0
 11
2.5190433070866143
 21
-0.6161338582677165
 31
0.0
 11
2.5181732283464568
 21
-0.6160078740157481
 31
0.0
 11
2.517248031496063
 21
-0.6158937007874016
 31
0.0
 11
2.5162598425196849
 21
-0.6157834645669291
 31
0.0
 11
2.5152244094488188
 21
-0.6156889763779527
 31
0.0
 11
2.5141220472440944
 21
-0.6155984251968504
 31
0.0
 11
2.5129724409448819
 21
-0.6155196850393701
 31
0.0
 11
2.5117559055118108
 21
-0.6154448818897638
 31
0.0
 11
2.5104881889763782
 21
-0.6153818897637795
 31
0.0
 11
2.5091574803149608
 21
-0.6153307086614174
 31
0.0
 11
2.507771653543307
 21
-0.6152913385826772
 31
0.0
 11
2.5063228346456694
 21
-0.615251968503937
 31
0.0
 11
2.5048228346456693
 21
-0.6152322834645669
 31
0.0
 11
2.503259842519685
 21
-0.6152165354330709
 31
0.0
  0
LINE
  5
D4
100
AcDbEntity
  8
0
 62
     0
100
AcDbLine
 10
2.50326
 20
-0.615217
 30
0.0
 11
2.501646
 21
-0.615217
 31
0.0
  0
LINE
  5
D5
100
AcDbEntity
  8
0
 62
     0
100
AcDbLine
 10
2.501646
 20
-0.615217
 30
0.0
 11
2.462205
 21
-0.615217
 31
0.0
  0
LINE
  5
D6
100
AcDbEntity
  8
0
 62
     0
100
AcDbLine
 10
2.462205
 20
-0.615217
 30
0.0
 11
2.462205
 21
-0.729343
 31
0.0
  0
LINE
  5
D7
100
AcDbEntity
  8
0
 62
     0
100
AcDbLine
 10
2.462205
 20
-0.729343
 30
0.0
 11
2.428213
 21
-0.729343
 31
0.0
  0
LINE
  5
D8
100
AcDbEntity
  8
0
 62
     0
100
AcDbLine
 10
2.462205
 20
-0.585772
 30
0.0
 11
2.535339
 21
-0.585772
 31
0.0
  0
SPLINE
  5
D9
100
AcDbEntity
  8
0
 62
     0
100
AcDbSpline
210
0.0
220
0.0
230
1.0
 70
     0
 71
     3
 72
     0
 73
     0
 74
    80
 44
0.0000000001
 11
2.5353385826771655
 21
-0.5857716535433071
 31
0.0
 11
2.5382007874015748
 21
-0.585748031496063
 31
0.0
 11
2.5409881889763781
 21
-0.5856929133858267
 31
0.0
 11
2.543696850393701
 21
-0.5855944881889764
 31
0.0
 11
2.5463385826771652
 21
-0.5854645669291339
 31
0.0
 11
2.5488897637795276
 21
-0.5852913385826771
 31
0.0
 11
2.5513700787401574
 21
-0.5850826771653543
 31
0.0
 11
2.5537677165354329
 21
-0.5848385826771654
 31
0.0
 11
2.5560944881889762
 21
-0.5845590551181102
 31
0.0
 11
2.5583307086614173
 21
-0.5842322834645669
 31
0.0
 11
2.5604921259842519
 21
-0.5838740157480316
 31
0.0
 11
2.5625748031496065
 21
-0.5834763779527559
 31
0.0
 11
2.5645787401574802
 21
-0.5830433070866142
 31
0.0
 11
2.5664960629921261
 21
-0.5825669291338582
 31
0.0
 11
2.5683425196850393
 21
-0.5820551181102363
 31
0.0
 11
2.5701023622047243
 21
-0.581507874015748
 31
0.0
 11
2.5717874015748032
 21
-0.5809251968503937
 31
0.0
 11
2.5734055118110235
 21
-0.5802913385826771
 31
0.0
 11
2.5749803149606301
 21
-0.5796181102362205
 31
0.0
 11
2.5764999999999998
 21
-0.5788976377952756
 31
0.0
 11
2.5779763779527558
 21
-0.5781377952755905
 31
0.0
 11
2.5793937007874015
 21
-0.5773267716535433
 31
0.0
 11
2.580771653543307
 21
-0.5764763779527559
 31
0.0
 11
2.5820944881889765
 21
-0.5755787401574803
 31
0.0
 11
2.5833700787401574
 21
-0.5746377952755906
 31
0.0
 11
2.5845866141732285
 21
-0.5736456692913385
 31
0.0
 11
2.585763779527559
 21
-0.5726141732283464
 31
0.0
 11
2.5868858267716535
 21
-0.5715393700787401
 31
0.0
 11
2.5879645669291338
 21
-0.5704173228346456
 31
0.0
 11
2.5889842519685038
 21
-0.569248031496063
 31
0.0
 11
2.589964566929134
 21
-0.5680393700787402
 31
0.0
 11
2.5908897637795274
 21
-0.5667834645669292
 31
0.0
 11
2.591775590551181
 21
-0.5654842519685039
 31
0.0
 11
2.5925944881889764
 21
-0.5641456692913386
 31
0.0
 11
2.5933700787401577
 21
-0.5628031496062992
 31
0.0
 11
2.5940826771653542
 21
-0.5614409448818898
 31
0.0
 11
2.5947519685039371
 21
-0.5600708661417323
 31
0.0
 11
2.5953582677165352
 21
-0.5586771653543308
 31
0.0
 11
2.5959212598425196
 21
-0.5572755905511811
 31
0.0
 11
2.5964291338582677
 21
-0.5558582677165355
 31
0.0
 11
2.5968897637795276
 21
-0.5544330708661417
 31
0.0
 11
2.5972834645669289
 21
-0.5529803149606299
 31
0.0
 11
2.5976338582677165
 21
-0.5515196850393701
 31
0.0
 11
2.5979212598425199
 21
-0.5500433070866142
 31
0.0
 11
2.5981653543307086
 21
-0.5485551181102363
 31
0.0
 11
2.5983464566929135
 21
-0.5470472440944882
 31
0.0
 11
2.5984842519685039
 21
-0.5455275590551181
 31
0.0
 11
2.5985669291338582
 21
-0.543992125984252
 31
0.0
 11
2.5985984251968506
 21
-0.5424448818897638
 31
0.0
 11
2.5985433070866142
 21
-0.5401889763779527
 31
0.0
 11
2.5983897637795277
 21
-0.537984251968504
 31
0.0
 11
2.5981299212598423
 21
-0.5358307086614174
 31
0.0
 11
2.5977716535433073
 21
-0.5337322834645669
 31
0.0
 11
2.597303149606299
 21
-0.5316771653543307
 31
0.0
 11
2.5967401574803151
 21
-0.5296771653543307
 31
0.0
 11
2.5960708661417322
 21
-0.5277283464566929
 31
0.0
 11
2.5953031496062993
 21
-0.5258307086614174
 31
0.0
 11
2.5944212598425196
 21
-0.5239763779527559
 31
0.0
 11
2.5934448818897637
 21
-0.5221811023622047
 31
0.0
 11
2.5923543307086616
 21
-0.5204330708661418
 31
0.0
 11
2.5911692913385829
 21
-0.518740157480315
 31
0.0
 11
2.5898740157480313
 21
-0.5170905511811024
 31
0.0
 11
2.5884763779527558
 21
-0.515496062992126
 31
0.0
 11
2.5869724409448818
 21
-0.5139488188976378
 31
0.0
 11
2.5853700787401577
 21
-0.5124606299212599
 31
0.0
 11
2.5836574803149608
 21
-0.5110314960629921
 31
0.0
 11
2.5818267716535432
 21
-0.5097007874015748
 31
0.0
 11
2.5798740157480315
 21
-0.5084606299212598
 31
0.0
 11
2.5778070866141731
 21
-0.5073149606299212
 31
0.0
 11
2.5756102362204722
 21
-0.506255905511811
 31
0.0
 11
2.5732992125984251
 21
-0.5052992125984253
 31
0.0
 11
2.5708661417322833
 21
-0.5044251968503937
 31
0.0
 11
2.5683149606299214
 21
-0.5036535433070866
 31
0.0
 11
2.5656338582677165
 21
-0.5029606299212599
 31
0.0
 11
2.5628385826771654
 21
-0.5023700787401575
 31
0.0
 11
2.5599212598425196
 21
-0.5018622047244095
 31
0.0
 11
2.5568897637795276
 21
-0.5014566929133858
 31
0.0
 11
2.5537244094488187
 21
-0.5011338582677165
 31
0.0
 11
2.5504527559055119
 21
-0.5009094488188977
 31
0.0
 11
2.5470511811023622
 21
-0.5007716535433071
 31
0.0
  0
LINE
  5
DA
100
AcDbEntity
  8
0
 62
     0
100
AcDbLine
 10
2.547051
 20
-0.500772
 30
0.0
 11
2.543539
 21
-0.500732
 31
0.0
  0
LINE
  5
DB
100
AcDbEntity
  8
0
 62
     0
100
AcDbLine
 10
2.543539
 20
-0.500732
 30
0.0
 11
2.462205
 21
-0.500732
 31
0.0
  0
LINE
  5
DC
100
AcDbEntity
  8
0
 62
     0
100
AcDbLine
 10
2.462205
 20
-0.500732
 30
0.0
 11
2.462205
 21
-0.585772
 31
0.0
  0
ENDSEC
  0
SECTION
  2
OBJECTS
  0
DICTIONARY
  5
19
100
AcDbDictionary
  3
ACAD_GROUP
350
1A
  3
ACAD_MLINESTYLE
350
1B
  0
DICTIONARY
  5
1A
102
{ACAD_REACTORS
330
19
102
}
100
AcDbDictionary
  0
DICTIONARY
  5
1B
102
{ACAD_REACTORS
330
19
102
}
100
AcDbDictionary
  3
STANDARD
350
1C
  0
MLINESTYLE
  5
1C
102
{ACAD_REACTORS
330
1B
102
}
100
AcDbMlineStyle
  2
STANDARD
 70
     0
  3

 62
     0
 51
90.0
 52
90.0
 71
     2
 49
0.5
 62
   256
  6
BYLAYER
 49
-0.5
 62
   256
  6
BYLAYER
  0
DICTIONARY
  5
22
102
{ACAD_REACTORS
330
19
102
}
100
AcDbDictionary
  0
ENDSEC
  0
EOF
